Guitar Tabs, Chords and Lyrics
Major upgrade!! After one year development the new version of Chordie is now online! Please give feedback.


Electrified   Dressy Bessy

 
 e|-----------------------|
 B|-----------------------|
 G|--9-8-7-6-----7-6-5-4--|
 D|--9-8-7-6-----7-6-5-4--|
 A|--7-6-5-4-----5-4-3-2--|
 E|-----------------------|

 


 


 (Verse lead)


 

 
 e|-------------------------|
 B|----------------------5--|
 G|----6---6---------4h6----|
 D|-------------------------|
 A|----------(4/)-----------| The 4 in parenthesis is actually
 E|-------------------------| a bass note, but sounds okay on guitar and fills space

 


 


 (Prechorus rhythm)


 

 
 e|-------------|
 B|--------(0)--| The notes in parenthesis are probably
 G|--7-6-7-(0)--| not intentional, just struck while
 D|--7-6-7-(0)--| transitioning to the chorus chords
 A|--5-4-5------|
 E|-------------|

 


 


 (Chorus/Bridge rhythm)


 

 
 e|--------------|
 B|--------------|
 G|--------------|
 D|--2--6--7--8--|
 A|--2--6--7--8--|
 E|--0--4--5--6--|


Important: The song above is NOT stored on the Chordie server. The original song is hosted at www.guitaretab.com. Chordie works as a search engine and provides on-the-fly formatting. Chordie does not index songs against artists'/composers' will. To remove this song please click here.

This song is displayed as text-only. Transposing and tuning is only available for chordpro-songs.
Rate #2 of 3 versions

Jango Player

Login - add to songbook

SHARE PAGE  




You need to log in to post comments