Guitar Tabs, Chords and Lyrics
Major upgrade!! After one year development the new version of Chordie is now online! Please give feedback.


Bastards on Parade  Dropkick Murphys

Band: Dropkick Murphys
Song: Bastards on Parade
Album: Blackout
Tabber: clark@theoddmenout.com
*= mute chord
Use barre chords for the clean part and power chords at the end
Intro: Eb,G#,Bb,Eb
Verse 1:
I've [Eb]lost all the time that I [G#]have in this world
I've [Eb]spent it unwisely, un[G#]wisely you [Bb]see
And I [Eb]can't get it back and I [G#]can't move forward
I'm [Eb]broken and I'm [G#]empty, it's [Bb]over for [Eb]me
Pre-Chorus:
If [G#]I could undo all the [Eb]wrongs that I've caused
[G#]Fall to my knees, pray for [Eb]swiftness and [Bb]just
For [Eb]I'm just a fool, a fool [G#]driven to dust
And the [Eb]world ain't [G#]gonna [Bb]change for [Eb]me
Mandolin Break:
[(Eb)] [(G#)]  
 
 e---------------------------11--11-11--10-8--|
 B--------8-------------9-11------------------|
 G--8--10---10p8-8-8--8-----------------------|
 D--------------------------------------------|
 A--------------------------------------------|
 E--------------------------------------------|

[(Eb)] [(G#)] [(Bb)]  
 
 e--8--8-8-8-10---------------------------------------------------|
 B--------------9/11--11-11-11--9/11--11-11-11--11-11--11-9-8-----|
 G------------------------------------------------------------10--|
 D----------------------------------------------------------------|
 A----------------------------------------------------------------|
 E----------------------------------------------------------------|

[(Eb)] [(G#)] [(Eb)] [(G#)] [(Bb)] [(Eb)]  
 
 e-------------------------------------------------------------------------|
 B--11--11-11-11--11--11-11-11--9--9-9-9-9h11-9--8--8--8h9h11-9-8-6-6------|
 G--------------------------------------------------------------------7-8--|
 D-------------------------------------------------------------------------|
 A-------------------------------------------------------------------------|
 E-------------------------------------------------------------------------|

Verse 2:
So [G#]give me one more chance to prove these [Eb]problems and frustrations
Aren't just [G#]manifest in memories we're [Eb]destined to re[Bb]peat
A [Eb]second chance to prove I [G#]know right from wrong
I [Eb]swear I'll do things [G#]different but can't [Bb]promise to be [Eb]strong
Chorus:
So [Eb]come all you losers, you bastards and cheats,
[C]Vagrants, and barflies [Bb]down on the street
Follow this [Eb]path to sal[C]vation, vindi[G#]cation awaits
We're [Eb]marching on East [G#]Broadway [Bb]Street to[Eb]night
Intro
Verse 3:
If you could [Eb]look into this old face and [G#]try to see the young man
I [Eb]swear I once was pretty, not the [G#]monster you now [Bb]see
But I [Eb]squandered all my chances, lost my [G#]faith and took for granted
This [Eb]life and precious [G#]one chance, the [Bb]whirlwind I'll [Eb]wreak
Pre-Chorus
Chorus x1
Mandolin Fill:
C x6
 
 e--8-8-8-6----|
 B----------8--|
 G-------------|
 D-------------|
 A-------------|
 E-------------|

Mandolin Solo: (C,G#,Eb,Bb throught solo)
 
 e--8-8-6-8--8-8-6-8-8-10-8-6----8--8-8-6-8-6---6--|
 B----------------------------8---------------8----|
 G-------------------------------------------------|
 D-------------------------------------------------|
 A-------------------------------------------------|
 E-------------------------------------------------| \

Part 1 x2
 
 e--8--8-8-6-8-8-10-8-6----10-10-10-10-11-13-15-13-10-8--|/
 B----------------------8--------------------------------|
 G-------------------------------------------------------|
 D-------------------------------------------------------|
 A-------------------------------------------------------|
 E-------------------------------------------------------|

x2
 
 e--13-15-15-15-15-15-15-15-15-15-13-11-10-------13-13-13-13-13-13-11-10----|
 B-----------------------------------------11-13-------------------------13-|
 G--------------------------------------------------------------------------|
 D--------------------------------------------------------------------------|
 A--------------------------------------------------------------------------|
 E--------------------------------------------------------------------------|

Part 1 x1
[C]Bridge Chorus:
C* G#* C*
So come all you losers, you bastards and cheats
C* G#*
Vagrants and barflies down on the street
C G# g#
Follow this path to salvation, vindication awaits
We're [Eb]marching on East [G#]Broadway [Bb]Street to[Eb]night
Chorus x1
To[Eb]night.[G#]..[Bb] [Eb]
That's it! For suggestions, corrections, and requests, email me:
oddmenout4@yahoo.com

Important: The song above is NOT stored on the Chordie server. The original song is hosted at www.guitaretab.com. Chordie works as a search engine and provides on-the-fly formatting. Chordie does not index songs against artists'/composers' will. To remove this song please click here.

Text color:
Chord color:
Chord grids: 
Font size:    
Page size: 

Bb C Eb G#
Rate #1 of 5 versions

Login - add to songbook

SHARE PAGE  



You need to log in to post comments