Guitar Tabs, Chords and Lyrics
Major upgrade!! After one year development the new version of Chordie is now online! Please give feedback.


Half-Life  Duncan Sheik

Song: HALF LIFE (ACOUSTIC VERSION)
Artist: Duncan Sheik
Chords by: Louie A. Ebojo
From: ebbskyz@yahoo.com
Note: Use a capo on the 1st fret. This is good for a solo acoustic guitar.
Tuning: EADGBe
Chords:
E 022100
F#m7 2x2200
F#msus2 2x2400
Asus2 x02200
A9 x02400
A9/G# 402400
B5 x24400
B9 x24422
C#m5 x42100
C#m9 x46800
C#m x46650
D9 xx0230
G#7 4245xx
[E] [F#m7] [Asus2] [C#m5]  
 
 e|---0------0-------0------0-----0----
 B|---0------0-------0------0-----0----
 G|---1------2-------2------1-----2----
 D|---2------2-------2------2-----2----
 A|---2------x-------0------4-----0----
 E|---0------2-------x------x-----x----

[E]I'm awake in the afternoon
[F#m7]I fell asleep in the living room
It's [Asus2]one of those moments
When [C#m5]everything is so [Asus2]clear.
[E]Before the truth goes back into hiding
[F#m7]I wanna decide 'cause it's worth deciding
To [Asus2]work on finding [C#m5]something more than this [Asus2]fear.
[D9] [C#m5] [Asus2]  
 
 e|---0------0-------0------
 B|---3------0-------0------
 G|---2------1-------2------
 D|---0------2-------2------
 A|---x------4-------0------
 E|---x------x-------x------

It t[D9]akes so much [C#m5]out of me to p[Asus2]retend.
T[D9]ell me now, t[C#m5]ell me how to m[Asus2]ake amends.
Chorus:
[E] [B5] [G#7] [C#m9] [Asus2]  
 
 e|---0------0------x-------0-------0-----
 B|---0------0------x-------0-------0-----
 G|---1------4------5-------8-------2-----
 D|---2------4------4-------6-------2-----
 A|---2------2------2-------4-------0-----
 E|---0------x------4-------x-------x-----

[E]Maybe, I need to see the da[B5]ylight
[G#7]Leave behind this ha[C#m9]lf-life
Don't you see I'm b[Asus2]reaking down.
[E] [B5] [G#7] [C#m9] [A9] [A9/G#] [F#m7] [E] [B5]  
 
 e|---0-----0------x------0------0------0------0-----0----0--
 B|---0-----0------x------0------0------0------0-----0----0--
 G|---1-----4------5------8------4------4------2-----1----4--
 D|---2-----4------4------6------2------2------2-----2----4--
 A|---2-----2------2------4------0------0------x-----2----2--
 E|---0-----x------4------x------x------4------2-----0----x--

[E]Oh lately, something here don't [B5]feel right
[G#7]this is just a ha[C#m9]lf-life
Is there really [A9]no escape,[A9/G#]
No escape from t[F#m7]ime [E] of any k[B5]ind?
[C#m] [B9] [Asus2]  
 
 e|---0------2------0-----
 B|---5------2------0-----
 G|---6------4------2-----
 D|---6------4------2-----
 A|---4------2------0-----
 E|---0------x------x-----

Interlude: C#m-B9-Asus2
[E]I keep trying to understand
[F#m7]This thing and that thing, my fellow man
I g[Asus2]uess I'll let you [C#m5]know when i figure it [Asus2]out.
[E]But I don't mind a few mysteries
[F#m7]They can stay that way it's fine by me
But,[Asus2] you are another [C#m5]mystery i am m[Asus2]issing.
[D9]It takes too much [C#m5]out of me to p[Asus2]retend.
(Repeat Chorus)
[C#m] [B9] [Asus2]  
 
 e|---0------2------0-----
 B|---5------2------0-----
 G|---6------4------2-----
 D|---6------4------2-----
 A|---4------2------0-----
 E|---0------x------x-----

[C#m]Come on lets f[B9]all in [Asus2]love,
[C#m]Come on lets f[B9]all in [Asus2]love,
[C#m] [B9] [A9] [F#msus2]  
 
 e|---0------2------0------0----
 B|---5------2------0------0----
 G|---6------4------4------4----
 D|---6------4------2------2----
 A|---4------2------0------x----
 E|---0------x------x------2----

[C#m]Come on lets f[B9]all in l[A9]ove, again.[F#msus2]..
'Cause l[E]ately something here don't f[B5]eel right
[G#7]This is just a h[C#m9]alf-life,
Without you I am b[Asus2]reaking down.
Oh, w[E]ake me, let me see the da[B5]ylight
[G#7]Save me from this h[C#m9]alf-life
Let's y[A9]ou and I e[A9/G#]scape,[F#m7] [E]
Escape from t[B5]ime...
[C#m]Come on lets f[B9]all in [Asus2]love,
[C#m]Come on lets f[B9]all in [Asus2]love,
[C#m]Come on lets f[B9]all in l[A9]ove, again...
EH, THAT'S ALL FOLKS!

Important: The song above is NOT stored on the Chordie server. The original song is hosted at www.guitaretab.com. Chordie works as a search engine and provides on-the-fly formatting. Chordie does not index songs against artists'/composers' will. To remove this song please click here.

Text color:
Chord color:
Chord grids: 
Font size:    
Page size: 

A9 A9/G# Asus2 B5 B9 C#m C#m9 D9 E F#m7 F#msus2 G#7
Rate #0 of 12 versions

Jango Player

Login - add to songbook

SHARE PAGE  




You need to log in to post comments