Guitar Tabs, Chords and Lyrics
Major upgrade!! After one year development the new version of Chordie is now online! Please give feedback.


Rainbow to the Stars  Dune

By DUNE
STRING
[654321]  
 
 ------ 

[F]Dm[-----] ---- [133211]xx0231
C ----- x32010
Bb----- x13331
Riff 1
 
 e|---------------------------------------|
 B|-1-1-----------1-3-1-1-----------1-3---|
 G|-----3-3-2-2-3---------3-3-2-2-3-------|
 D|---------------------------------------|
 A|---------------------------------------|
 E|---------------------------------------|
 e|-1-1-0-0-----0-1-3-0-0-----------------|
 B|---------3-3-----------3-3-1-3-3-1-1---|
 G|-------------------------------------3-|
 D|---------------------------------------|
 A|---------------------------------------|
 E|---------------------------------------|

Riff 2
 
 e|----------------------------------------|
 B|----------------------------------------|
 G|----------------------------------------|
 D|----------------------------------------|
 A|---------3--------3---------3---------3-|
 E|-1-1-1-1--1-1-1-1---1-1-1-1---1-1-1-1---|

Intro
[F] [-] [Dm] [-] [C] [-] [Bb]  
Rainbow to the stars....
Riff 1
Riff 2
Rainbow to the stars....
Verse
[F]Like a rainbow to the stars
[F]Keep the faith right in your heart
[Dm]If you let your dreams come true
Then [C]happiness will [Bb]follow you
[F]Life is just a game we play
[F]Happiness is here to stay
[Dm]If you want to win this race
There's [C]someone who can [Bb]take your place
[F]Like a rainbow to the stars
[F]Keep the faith right in your heart
[Dm]If you let your dreams come true
Then [C]happiness will [Bb]follow you
Riff 1
Riff 1
Rainbow to the stars....
(Verse)
Riff 1
Rainbow to the stars (3x)

Important: The song above is NOT stored on the Chordie server. The original song is hosted at www.guitaretab.com. Chordie works as a search engine and provides on-the-fly formatting. Chordie does not index songs against artists'/composers' will. To remove this song please click here.

Text color:
Chord color:
Chord grids: 
Font size:    
Page size: 

Bb C Dm F
Rate #2 of 3 versions

Login - add to songbook

SHARE PAGE  




You need to log in to post comments