Guitar Tabs, Chords and Lyrics
Server problems seems to be fixed. Chordie has been experiencing problems with songs disappearing. These issues now seems to be fixed, but still verifying the fix. If you find anything strange, please email admin@chordie.com.


After All  Dutton

Song: After All
Album: The Surface
www.duttonband.com
Tuning: Half Step Down (Eb Ab Db Gb Bb Eb)
Strum Pattern: D D U U D
Chord Charts:
[A2]X02400 [A2C#]X42400 [D6]X54200 [F#m]2X2200 [Esus]022200 [E]022100 [D6(2)]X57700
Intro: A2 A2C# (x2)
[A2]I [A2C#]FALL̷[A2]2; BACK ON MY KNEES[A2C#] AGAIN

[A2]MY [A2C#]ALL R[A2]32;IS ALL THAT I HAVE T[A2C#]O GIVE
AND AFTER ALL[D6]̷[F#m]2; YOU'RE [D6]AFTER A[F#m]LL OF ME
 A[D6]ND AFT[F#m]ER ALL
I'M AFTER [Esus]ALL [E] OF YOU
A2 A2C# (x2)
[A2]I [A2C#]FALL̷[A2]2; BACK ON MY KNEES[A2C#] AGAIN

[A2]MY [A2C#]ALL R[A2]32;IS ALL THAT I HAVE T[A2C#]O GIVE
AND AFTER ALL[D6]̷[F#m]2; YOU'RE [D6]AFTER A[F#m]LL OF ME
 [D6] AND A[F#m]FTER ALL
I'M AFTER [Esus]ALL [E] OF YOU[D6(2)]
ALL THAT I [F#m]AM
 (all t[D6(2)]hat I am) YOU'RE SE[F#m]EKING AFTER ALL[D6(2)] OF ME 
[F#m];WITH ALL I HAVE&[D6(2)]#8232; (with all I have)
I'M SEEKING [F#m]AFTER ALL OF YOU
A2 A2C# (x2)
[A2]I [A2C#]FALL̷[A2]2; BACK ON MY KNEES[A2C#] AGAIN
(GUITAR SOLO)
CHORDS FOR SOLO: D6 F#m (x4)
(and after [D6(2)]all) ALL THAT I [F#m]AM
 (all t[D6(2)]hat I am) YOU'RE SE[F#m]EKING AFTER ALL[D6(2)] OF ME 
[F#m];WITH ALL I HAVE

(with all I h[D6(2)]ave) I'M SEEKING [F#m]AFTER ALL OF YOU[D6]
[F#m] YOU'RE AFTER A[D6]LL OF M[F#m]E
 AND A[D6]FTER A[F#m]LL I'M [Esus]AFTER AL[E]L [D6] OF YOU
Solo:
 
 eb|--------------------------------------------------------------------|
 Bb|--------------------------------------------------------------------|
 Gb|--9999997777775555-9999997777775555---------------------------------|
 Db|------------------------------------7-79-99----9-999-97-7-----------|
 Ab|----------------------------------------------------------7-7----7--|
 Eb|--------------------------------------------------------------------|
 eb|--------------------------------------------------------------------|
 Bb|--------------------------------------------------------------------|
 Gb|--9999997777775555-9999997777775555-9-------7-5-4-------------------|
 Db|---------------------------------------------------------7----------|
 Ab|--------------------------------------------------------------------|
 Eb|--------------------------------------------------------------------|


Important: The song above is NOT stored on the Chordie server. The original song is hosted at www.guitaretab.com. Chordie works as a search engine and provides on-the-fly formatting. Chordie does not index songs against artists'/composers' will. To remove this song please click here.

Text color:
Chord color:
Chord grids: 
Font size:    
Page size: 

A2 D6 E Esus F#m
Rate #1 of 1 versions

Jango Player

Login - add to songbook

SHARE PAGE  




You need to log in to post comments