Guitar Tabs, Chords and Lyrics
Server problems seems to be fixed. Chordie has been experiencing problems with songs disappearing. These issues now seems to be fixed, but still verifying the fix. If you find anything strange, please email admin@chordie.com.


Rock It All Away  Dwight Yoakam

Nothing But Love
From "3 Pears"
Tabbed by thatchadmiller (Twitter)
Intro (E the entire time)
I never really believed in somethin? said with a word
At least I never trusted what I was told or ever heard
Riff
 
 e|------0-----0-----0-|
 B|--0h3---0h3---0h3---|
 G|--------------------|
 D|--------------------|
 A|--------------------|
 E|--------------------|

E B-A for the verses and chorus
Verse 1
I never really believed in somethin? said with a word
At least I never trusted what I was told or ever heard
Verse 2
I never tried to avoid it if it did come along
?Cause whatever happened next always proved it was wrong
Riff during verses
 
 e|--0-4-2-0-------0-4-2-0-5----------------------|
 B|----------2------------------------------------|
 G|-----------------------------------------------|
 D|-----------------------------------------------|
 A|-----------------------------------------------|
 E|-----------------------------------------------|

Chorus
But you rocked that all away
You rocked what words can?t say
You rocked it up and down the front then back around
Every lonely place, you rocked it all away
Every empty space, you rocked it all away
Riff during chorus
 
 e|--------------------|
 B|--------------------|
 G|--------------------|
 D|------2-------------|
 A|--2-4---2-----------|
 E|----------0---------|

Bridge
[A]You and me both walked alone
[E/B]Down streets where nobodies home
[A]You and me we both hung around
[E/B]The kinda places that can?t be found
[B]You and me we both new the score
but [A]whatever it was ain?t adding up [B]anymore
Yeah, yeah,[A] yeah, yeah
Solo (back to E B-A)
(I'm going to update later with the tab to the solo - very basic)
Chorus
Verse 1 (with ?aaah?s?)
Chorus
If you have any input or corrections, hit me up on Twitter and let me know
if you have any songs you need help with. God bless!

Important: The song above is NOT stored on the Chordie server. The original song is hosted at www.guitaretab.com. Chordie works as a search engine and provides on-the-fly formatting. Chordie does not index songs against artists'/composers' will. To remove this song please click here.

Text color:
Chord color:
Chord grids: 
Font size:    
Page size: 

A B E/B
Rate #1 of 2 versions

Login - add to songbook

SHARE PAGE  



You need to log in to post comments