Guitar Tabs, Chords and Lyrics
Server problems seems to be fixed. Chordie has been experiencing problems with songs disappearing. These issues now seems to be fixed, but still verifying the fix. If you find anything strange, please email admin@chordie.com.


Abandon All Hope   Dying Fetus

 
 --------------------------------------------------------------------
 --------------------------------[trem pick.......................]--
 --------------------------------------------------------------------
 ----------------------------------3---2-----------2-------2---3-----
 --3-------4\3---3---------4\3-------------4---3-------4-------------
 --1-1111112\1-0/1-111111112\1-0/1-----------------------------------
 --------------------------------------------------------------------
 ---------------------------------[trem pick......................]--
 --------------------------------------------------------------------
 ----------------------------------7---6-----------6-------6---7-----
 --3-------4\3---3---------4\3-------------8---7-------8-------------
 --1---1---2\1-0/1-1---1---2\1-0/1-----------------------------------

 


 


 [ending play 2x more] 


 

 
 -------------------------------------

 


 -[trem pick.......................]--


 

 
 -------------------------------------
 --7---6-----------6-------6---7------
 ----------8---7-------8--------------
 -------------------------------------

 


 


 Riff 2


 

 
 --------------------------------------------------|-----------------
 --------------------------------------------------|---[end 1&3]-----
 --------------------------------------------------|-----------------
 ----------2---------------2---------------2-------|-----------------
 ----4---3-0-3---3---4---3-0-3---3---4---3-0-3---3-|-6---4---7---3---
 --0-2-0-1---1-0-1-0-2-0-1---1-0-1-0-2-0-1---1-0-1-|-4---2---5---1---
 -----------------
 --[end 2]--------
 -----------------
 -----------------
 ----6-5---6---4--
 --0-4-3-0-4-0-2--

 


 


 [end 4: go into Riff 3] 


 


 Riff 3


 

 
 -----------------------------------
 -----------------------------------
 -----------------------------------
 -----------------------------------
 ----6-5---6---4-5---6-5---6---6-7--
 --0-4-3-0-4-0-2-3-0-4-3-0-4-0-4-5--

 


 


 Riff 4


 

 
 --------------------------------------------
 --------------------------------------------
 --------------------------------------------
 --------------------------------------------
 --------------------------------------------
 --5p1-1111112p1-1111115p1-1111112p1-111111--
 ----------------------------------
 ----------------------------------
 ----------------------------------
 ----------1-----------3---3---4---
 ------2-------5---2---1---1---2---
 --5-------------------------------

 


 [trem pick...................] 


 


 Riff 5


 

 
 -----------------------------------------------------------------
 -----------------------------------------------------------------
 -----------------------------------------------------------------
 -----------------------------------------------------------------
 --3-3-3-3-4-3---3-3-3-3-3-4-3---3-6/7---5-----6/7-4-------6/7-5--
 --1-1-1-1-2-1-0-1-1-1-1-1-2-1-0-1-4/5-0-3-0-0-4/5-2---0-0-4/5-3--

 


 


 Riff 6


 

 
 -------------------------------------------
 -------------------------------------------
 -------------------------------------------
 --6-------7---------------1---1------------
 --8~~~~~~~9-------2---------------2--------
 --------------4-------4---------------4----

 


 [trem.....................] 


 


 Riff 7


 

 
 --------------------------------------------------------------------
 --------------------------------------------------------------------
 --------------------------------------------------------------------
 --1-------------------------------44------44------44------44--------
 --2-------------------------------55555555555555555555555555555555--
 --4---------------------------------777777777777777777777777777777--
 --------------------------------------------------------------------
 --------------------------------------------------------------------
 --------------------------------------------------------------------
 --1-------------------------------7---------------6-----------------
 --2-------------------------------8---------------7-----------------
 --4-------------------------------10--------------9-----------------

 


 


 Riff 8


 

 
 --------------------------------------------------------------------
 --------------------------------------------------------------------
 --------------------------------------------------------------------
 --11------11------11------22------44------44------44------55--------

 


 [--2222222222222222222222223333333355555555555555555555555566666666--]  

 
 ----4444444444444444444444--555555--7777777777777777777777--888888--
 --------------------------------------------------------------------
 --------------------------------------------------------------------
 --------------------------------------------------------------------
 --77------77------66------66------11------11------11------22--------

 


 --8888888888888888777777777777777722222222222222222222222233333333--


 

 
 ----10~~~~~~~~~~~~9999999999999999--4444444444444444444444--555555--

 


 


 Riff 9 (spacing for number clarity)


 


 gtr. 1


 

 
 ---------[2x]----------|-----------[2x]-----------|
 -----------------------|--------------------------|
 --6-7-9-7-6------------|--7-9-10-9-7--------------|
 -----------------------|--------------------------|
 ------------8-7-5-7-8--|-------------10-8-7-8-10--|
 -----------------------|--------------------------|
 ---------[2x]------------------|-----------[2x]-----------|
 -------------------------------|--------------------------|
 --9-10-12-10-9-----------------|--7-9-10-9-7--------------|
 -------------------------------|--------------------------|
 ---------------13-12-10-12-13--|-------------10-8-7-8-10--|
 -------------------------------|--------------------------|
 ---------[2x]----------|--------------------------
 -----------------------|--------------------------
 --6-7-9-7-6------------|--7-9-10-9-7--------------
 -----------------------|--------------------------
 ------------8-7-5-7-8--|-------------10-8-7-8-10--
 -----------------------|--------------------------
 -------------------------------------------------------------
 -------------------------------------------------------------
 --9-10-12-10-9----------------12-14-15-14-12-----------------
 -------------------------------------------------------------
 ---------------13-12-10-12-13----------------15-13-12-13-15--
 -------------------------------------------------------------
 ------------------------------------------------------
 ------------------------------------------------------
 --7-9-10-9-7-------------9-10-12-10-9-----------------
 ------------------------------------------------------
 -------------10-8-7-8-10--------------13-12-10-12-13--
 ------------------------------------------------------
 -----------------------|-------[end 2]--------
 -----------------------|----------------------
 --4-6-7-6-4------------|--6-7-9---------------
 -----------------------|--------5-7-8---------
 ------------7-5-4-5-7--|--------------5-7-8---
 -----------------------|----------------------

 


 


 gtr. 2 (all notes minor 3rd up)


 

 
 -------------[2x]-------------|---------------[2x]--------------|
 ------------------------------|---------------------------------|
 --9-10-12-10-9----------------|--10-12-13-12-10-----------------|
 ------------------------------|---------------------------------|
 ---------------11-10-8-10-11--|-----------------13-11-10-11-13--|
 ------------------------------|---------------------------------|
 ---------------[2x]--------------|---------------[2x]--------------|
 ---------------------------------|---------------------------------|
 --12-13-15-13-12-----------------|--10-12-13-12-10-----------------|
 ---------------------------------|---------------------------------|
 -----------------16-15-13-15-16--|-----------------13-11-10-11-13--|
 ---------------------------------|---------------------------------|
 -------------[2x]-------------|---------------------------------
 ------------------------------|---------------------------------
 --9-10-12-10-9----------------|--10-12-13-12-10-----------------
 ------------------------------|---------------------------------
 ---------------11-10-8-10-11--|-----------------13-11-10-11-13--
 ------------------------------|---------------------------------
 ---------------------------------------------------------------
 ---------------------------------------------------------------
 --12-13-15-13-12----------------15-17-18-17-15-----------------
 ---------------------------------------------------------------
 -----------------16-15-13-15-16----------------18-16-15-16-18--
 ---------------------------------------------------------------
 ---------------------------------------------------------------
 ---------------------------------------------------------------
 --10-12-13-12-10----------------12-13-15-13-12-----------------
 ---------------------------------------------------------------
 -----------------13-11-10-11-13----------------16-15-13-15-16--
 ---------------------------------------------------------------
 ---------[end 1]----------|-------[end 2]--------
 --------------------------|----------------------
 --7-9-10-9-7--------------|--6-7-9---------------
 --------------------------|--------5-7-8---------
 -------------10-8-7-8-10--|--------------5-7-8---
 --------------------------|----------------------

 


 


 Riff 10


 

 
 --------------------------------------------------
 --------------------------------------------------
 --------------------------------------------------
 --------------------------------------6\5---------
 ----3-3-3-3---4\3---3---3---3-3-------4\3-6\5-4/5-
 --0h1-1-1-1-0-2\1-0h1-0h1-0h1-1-1-1-0-----4\3-2/3-
 ----------------------------------------------------
 ----------------------------------------------------
 ----------------------------------------------------
 --------------------------6-5-5-------875-----------
 ----3-3-3-3---4\3---3---3-4-3-3-6-5-5----875653-----
 --0h1-1-1-1-0-2\1-0h1-0h1-------4-3-3----------653--


Important: The song above is NOT stored on the Chordie server. The original song is hosted at www.guitaretab.com. Chordie works as a search engine and provides on-the-fly formatting. Chordie does not index songs against artists'/composers' will. To remove this song please click here.

This song is displayed as text-only. Transposing and tuning is only available for chordpro-songs.
Rate #2 of 3 versions

Login - add to songbook

SHARE PAGE  




You need to log in to post comments