Guitar Tabs, Chords and Lyrics
Major upgrade!! After one year development the new version of Chordie is now online! Please give feedback.


Visions   Eagles

 
 E[---------------------------------]
 B[---------------------------------]
 jh----------4-------------4--------]
 D[-----2--2--------------2---------]
 A[---3--3------3-3---2--2---22-----]
 D[------------------2--2-----------]

 


 


 Riff 1 ( Both Guitars ) < x2 >


 


 

 
 E[----------------------------------------------------------]
 B[----------------------------------------------------------]
 G[--5-5-5-5-5-5----2-2-2-2-2-2----5-5-5-5-5-5---------------]
 D[--5-5-5-5-5-5----2-2-2-2-2-2----5-5-5-5-5-5----2-2-2-2-2-2]
 A[--3-3-3-3-3-3----2-2-2-2-2-2----3-3-3-3-3-3----2-2-2-2-2-2]
 D[-----------------2-2-2-2-2-2-------------------2-2-2-2-2-2]


Important: The song above is NOT stored on the Chordie server. The original song is hosted at www.guitaretab.com. Chordie works as a search engine and provides on-the-fly formatting. Chordie does not index songs against artists'/composers' will. To remove this song please click here.

This song is displayed as text-only. Transposing and tuning is only available for chordpro-songs.
Rate #1 of 2 versions

Jango Player

Login - add to songbook

SHARE PAGE  




You need to log in to post comments