Guitar Tabs, Chords and Lyrics
Login is temporarily disabled for some users. Do not panic. Will be back in an hour or two. DO NOT REREGISTER!!


A Little More Country Than That  Easton Corbin

 
 -----------------------------------------------------------------

A Little More Country Than That - Easton Corbin
 
 -----------------------------------------------------------------

Tabbed by: redcoat905
E-mail: guitarpig@outlook.com
Key of B - Capo 2nd fret - Play in A
Intro
 
 e|--------------------------------------------------------------|
 B|--------------------------------------------------------------|
 G|--2--1-----2--1----------------2--1-----2--1------------------|
 D|--------2--------2-----0--2----------2--------2-----0--2------|
 A|--------------------4----------------------------4--------0---|
 E|--------------------------------------------------------------|

[A]Imagine a dirt road full of pot holes
[A]With a creek bank and some cane poles
Catching [Bm]channel cat
[D]I'm a little more [E]country [A]that
[A]Picture a small town with an old hound
[A]Laying out front of the court house
While the [Bm]old men chew the fat
[D]I'm a little more [E]country than [A]that
Chorus
I just [D]want to make [C#m]sure you know
[Bm]Just who you're [C#m]getting under [D]this old hat
Cause [D]girl I'm not [C#m]the kind to [Bm]two time
Or [C#m]play games be[D]hind your back
[E]I'm a little more country than [A]that
[A]Think of a Hank song from days gone
[A]With a steel ride that's so strong
It sends [Bm]chills up your back
[D]I'm a little more [E]country than [A]that
[A]If you want a brick home in a school zone
[A]With the doors locked and alarms on
Girl, you're [Bm]way off track
[D]I'm a little more [E]country than [A]that
Chorus
I just [D]want to make [C#m]sure you know [Bm]just who you're
[C#m]Getting under [D]this old hat
Cause [D]girl I'm not [C#m]the kind to [Bm]two time
Or [C#m]play games be[D]hind your back
[E]I'm a little more country than [A]that
Lead Break
[A] [Bm] [C#m] [D] [E] [A]  
Yeah, [D]I'm sure that [C#m]you've heard those [Bm]three words
From [C#m]others but [D]they fell flat
But [D]this ring ain't [C#m]something that [Bm]I mean to
[C#m]Give you and [D]then take back
[E]I'm a little more country than [A]that
[Bm]I'm a little more [E]country than [A]that
[Bm]I'm a little more [E]country than [A]that
Outro
 
 e|----------------------------------|
 B|----------------------------------|
 G|--2--1-----2--1-------------------|
 D|--------2--------2-----0--2-------|
 A|--------------------4--------0----|
 E|----------------------------------|


Important: The song above is NOT stored on the Chordie server. The original song is hosted at www.guitaretab.com. Chordie works as a search engine and provides on-the-fly formatting. Chordie does not index songs against artists'/composers' will. To remove this song please click here.

Text color:
Chord color:
Chord grids: 
Font size:    
Page size: 

A Bm C#m D E
Rate #1 of 3 versions

Login - add to songbook

SHARE PAGE  




You need to log in to post comments