Guitar Tabs, Chords and Lyrics
Server problems seems to be fixed. Chordie has been experiencing problems with songs disappearing. These issues now seems to be fixed, but still verifying the fix. If you find anything strange, please email admin@chordie.com.


Adrift  EchoBrain

Author/Artist: Echobrain
Title: Adrift
Album: Echobrain
Transcribed by: Adam Dabin
Email: adamdabin@hotmail.com
Tuning: Standard
Notes: Please listen to the cd to get the correct timing and strumming pattern
Chord names shown are implied tonality only.
[F] [G] [A] [F] [G] [A] [F] [G] [A]  
 
 -0--0--0--0-0-0-0-0-0-0-|-0--0--0--0-0-0-0-0-0-0-|-0--0--0--0-0-0-0-0-0-0-|
 -0--0--0--0-0-0-0-0-0-0-|-0--0--0--0-0-0-0-0-0-0-|-0--0--0--0-0-0-0-0-0-0-|
 -2--4--6--6-6-6-6-6-6-6-|-2--4--6--6-6-6-6-6-6-6-|-2--4--6--6-6-6-6-6-6-6-|
 -3--5--7--7-7-7-7-7-7-7-|-3--5--7--7-7-7-7-7-7-7-|-3--5--7--7-7-7-7-7-7-7-|
 -3--5--7--7-7-7-7-7-7-7-|-3--5--7--7-7-7-7-7-7-7-|-3--5--7--7-7-7-7-7-7-7-|
 -1--3--5--5-5-5-5-5-5-5-|-1--3--5--5-5-5-5-5-5-5-|-1--3--5--5-5-5-5-5-5-5-|

[F] [G] [A] [F] [G] [Am] [G] [F] [F] [G]  
 
 -0--0--0--0-0-0-0-0-0-0-|-0--0--0-----3------0---|----------------0--0----|
 -0--0--0--0-0-0-0-0-0-0-|-0--0--1-----3------0---|----------------0--0----|
 -2--4--6--6-6-6-6-6-6-6-|-2--4--2-----4------2---|----------------2--2--4-|
 -3--5--7--7-7-7-7-7-7-7-|-3--5--2-----5------3---|-------3--3--3--3--3--5-|
 -3--5--7--7-7-7-7-7-7-7-|-3--5--0-----5------3---|-3--3--3--3--3--3--3--5-|
 -1--3--5--5-5-5-5-5-5-5-|-1--3--------3------1---|-1--1--1--1--1--1--1--3-|

For to long I
[A] [G] [F]  
 
 -0--0--0--0--0--0--0--0-|-0--0--0--0--0--0--0--0-|-0--0--0--0--0--0--0--0-|
 -0--0--0--0--0--0--0--0-|-0--0--0--0--0--0--0--0-|-0--0--0--0--0--0--0--0-|
 -6--6--6--6--6--6--6--6-|-4--4--4--4--4--4--4--4-|-2--2--2--2--2--2--2--4-|
 -7--7--7--7--7--7--7--7-|-5--5--5--5--5--5--5--5-|-3--3--3--3--3--3--3--5-|
 -7--7--7--7--7--7--7--7-|-5--5--5--5--5--5--5--5-|-3--3--3--3--3--3--3--5-|
 -5--5--5--5--5--5--5--5-|-3--3--3--3--3--3--3--3-|-1--1--1--1--1--1--1--3-|

struggle
[A] [G] [D] [F]  
 
 -0--0--0--0--0--0--0--0--0--0--0--0-|-0--0--0--0--0--0--0--0--0--0--0--0--|
 -0--0--0--0--0--0--0--0--0--0--0--0-|-3--3--3--3--3--3--0--0--0--0--0--0--|
 -6--6--6--6--6--6--4--4--4--4--4--4-|-2--2--2--2--2--2--2--2--2--2--2--2--|
 -7--7--7--7--7--7--5--5--5--5--5--5-|-0--0--0--0--0--0--3--3--3--3--3--3--|
 -7--7--7--7--7--7--5--5--5--5--5--5-|-------------------3--3--3--3--3--3--|
 -5--5--5--5--5--5--3--3--3--3--3--3-|-------------------1--1--1--1--1--1--|

strive for nothing cold earth I
[A] [D] [F] [Am] [G] [F]  
 
 -0--0--0--0--0--0--0--0--0--0--0--0-|-0--0--0--0--0--0-----0-----3-----0--|
 -0--0--0--0--0--0--3--3--3--3--3--3-|-0--0--0--0--0--0-----1-----3-----0--|
 -4--4--4--4--4--4--2--2--2--2--2--2-|-2--2--2--2--2--2-----2-----4-----2--|
 -7--7--7--7--7--7--0--0--0--0--0--0-|-3--3--3--3--3--3-----2-----5-----3--|
 -7--7--7--7--7--7-------------------|-3--3--3--3--3--3-----0-----5-----3--|
 -5--5--5--5--5--5-------------------|-1--1--1--1--1--1-----------3-----1--|

lay endings change I'm old up close
[F] [G]  
 
 ----------------0--0----|
 ----------------0--0----|
 ----------------2--2--5-|
 ----------3--3--3--3--5-|
 -3--3--3--3--3--3--3--4-|
 -1--1--1--1--1--1--1--3-|

[A] [G] [F]  
 
 -0--0--0--0--0--0--0--0-|-0--0--0--0--0--0--0--0-|-0--0--0--0--0--0--0--0-|
 -0--0--0--0--0--0--0--0-|-0--0--0--0--0--0--0--0-|-0--0--0--0--0--0--0--0-|
 -6--6--6--6--6--6--6--6-|-4--4--4--4--4--4--4--4-|-2--2--2--2--2--2--2--4-|
 -7--7--7--7--7--7--7--7-|-5--5--5--5--5--5--5--5-|-3--3--3--3--3--3--3--5-|
 -7--7--7--7--7--7--7--7-|-5--5--5--5--5--5--5--5-|-3--3--3--3--3--3--3--5-|
 -5--5--5--5--5--5--5--5-|-3--3--3--3--3--3--3--3-|-1--1--1--1--1--1--1--3-|

Spring time has gone
[A] [G] [D] [F]  
 
 -0--0--0--0--0--0--0--0--0--0--0--0-|-0--0--0--0--0--0--0--0--0--0--0--0--|
 -0--0--0--0--0--0--0--0--0--0--0--0-|-3--3--3--3--3--3--0--0--0--0--0--0--|
 -6--6--6--6--6--6--4--4--4--4--4--4-|-2--2--2--2--2--2--2--2--2--2--2--2--|
 -7--7--7--7--7--7--5--5--5--5--5--5-|-0--0--0--0--0--0--3--3--3--3--3--3--|
 -7--7--7--7--7--7--5--5--5--5--5--5-|-------------------3--3--3--3--3--3--|
 -5--5--5--5--5--5--3--3--3--3--3--3-|-------------------1--1--1--1--1--1--|

Bring those teardrops those dreams
[A] [D] [F]  
 
 -0--0--0--0--0--0--0--0--0--0--0--0-|-0--0--0--0--0--0-|
 -0--0--0--0--0--0--3--3--3--3--3--3-|-0--0--0--0--0--0-|
 -4--4--4--4--4--4--2--2--2--2--2--2-|-2--2--2--2--2--2-|
 -7--7--7--7--7--7--0--0--0--0--0--0-|-3--3--3--3--3--3-|
 -7--7--7--7--7--7-------------------|-3--3--3--3--3--3-|
 -5--5--5--5--5--5-------------------|-1--1--1--1--1--1-|

upon this day
[C] [Em] [Bb] [G]  
 
 -0-----------------0----------------|-1-----------------------------------|
 -3-----------------0----------------|-3------------------3----------------|
 -0-----------------0----------------|-3------------------0----------------|
 -2-----------------2----------------|-3------------------0----------------|
 -3-----------------2----------------|-1------------------2----------------|
 -------------------0----------------|--------------------3----------------|

always undone they all work round to create the ups and downs They
[Asus]  
 
 -0--0--0--0--0--0--0--0-|
 -0--0--0--0--0--0--0--0-|
 -2--2--2--2--2--2--2--2-|
 -2--2--2--2--2--2--2--2-|
 -0--0--0--0--0--0--0--0-|
 ------------------------|

Fall
[F] [G] [A] [F] [G] [A] [F] [G] [A]  
 
 -0--0--0--0-0-0-0-0-0-0-|-0--0--0--0-0-0-0-0-0-0-|-0--0--0--0-0-0-0-0-0-0-|
 -0--0--0--0-0-0-0-0-0-0-|-0--0--0--0-0-0-0-0-0-0-|-0--0--0--0-0-0-0-0-0-0-|
 -2--4--6--6-6-6-6-6-6-6-|-2--4--6--6-6-6-6-6-6-6-|-2--4--6--6-6-6-6-6-6-6-|
 -3--5--7--7-7-7-7-7-7-7-|-3--5--7--7-7-7-7-7-7-7-|-3--5--7--7-7-7-7-7-7-7-|
 -3--5--7--7-7-7-7-7-7-7-|-3--5--7--7-7-7-7-7-7-7-|-3--5--7--7-7-7-7-7-7-7-|
 -1--3--5--5-5-5-5-5-5-5-|-1--3--5--5-5-5-5-5-5-5-|-1--3--5--5-5-5-5-5-5-5-|

[D] [C] [A] [G] [Ab] [A]  
 
 -0---------------------0------------|----------0-------3----4----0-------|
 -3---------------------3------------|----------0-------3----4----0-------|
 -2---------------------0------------|----------2-------4----5----6-------|
 -0---------------------3------------|----------2-------5----6----7-------|
 -----------------------2------------|----------0-------5----6----7-------|
 ------------------------------------|------------------3----4----5-------|

Once you've found the gates call the wind
[D] [C] [A] [G] [Ab] [A]  
 
 -0---------------------0------------|----------0-------3----4----0-------|
 -3---------------------3------------|----------0-------3----4----0-------|
 -2---------------------0------------|----------2-------4----5----6-------|
 -0---------------------3------------|----------2-------5----6----7-------|
 -----------------------2------------|----------0-------5----6----7-------|
 ------------------------------------|------------------3----4----5-------|

You know loves grows beyond call the wind
[D] [C] [A] [G] [Ab] [A]  
 
 -0---------------------0------------|----------0-------3----4----0-------|
 -3---------------------3------------|----------0-------3----4----0-------|
 -2---------------------0------------|----------2-------4----5----6-------|
 -0---------------------3------------|----------2-------5----6----7-------|
 -----------------------2------------|----------0-------5----6----7-------|
 ------------------------------------|------------------3----4----5-------|

As you cross the circumstances they change
[D] [C] [A] [G] [Ab] [A]  
 
 -0---------------------0------------|----------0-------3----4----0-------|
 -3---------------------3------------|----------0-------3----4----0-------|
 -2---------------------0------------|----------2-------4----5----6-------|
 -0---------------------3------------|----------2-------5----6----7-------|
 -----------------------2------------|----------0-------5----6----7-------|
 ------------------------------------|------------------3----4----5-------|

Passion to me calls And I wait
[D] [C] [A] [G] [Ab] [A]  
 
 -0---------------------0------------|----------0-------3----4----0-------|
 -3---------------------3------------|----------0-------3----4----0-------|
 -2---------------------0------------|----------2-------4----5----6-------|
 -0---------------------3------------|----------2-------5----6----7-------|
 -----------------------2------------|----------0-------5----6----7-------|
 ------------------------------------|------------------3----4----5-------|

(play out with backward guitar loop and string arrangement)
Tabbed by D@BZ

Important: The song above is NOT stored on the Chordie server. The original song is hosted at www.guitaretab.com. Chordie works as a search engine and provides on-the-fly formatting. Chordie does not index songs against artists'/composers' will. To remove this song please click here.

Text color:
Chord color:
Chord grids: 
Font size:    
Page size: 

A Ab Am Asus Bb C D Em F G
Rate #1 of 2 versions

Jango Player

Login - add to songbook

SHARE PAGE  




You need to log in to post comments