Guitar Tabs, Chords and Lyrics
Server problems seems to be fixed. Chordie has been experiencing problems with songs disappearing. These issues now seems to be fixed, but still verifying the fix. If you find anything strange, please email admin@chordie.com.


Vain Glory Opera  Edguy

As recorded by Edguy
(From the 1998 Album VAIN GLORY OPERA)
Transcribed by Christian Einarsson
Words and Music by Tobias Sammet
[Gm]x x x 12 11 10 Eb
x x x x x 11 F
x x x 10 10 8 Bb
x x x x 11 10
[Cm/G]x x x 12 13 11 Cm
x x x x 13 11 G#
x x x 13 x x Dm/Bb
x x x 15 15 13
CmXV
x x x 17 16 15 Fm
x x x x 18 16 BbXV
x x x 15 15 x Cm/Ab
x x 18 17 16 x
[Eb6/G]x x 17 17 16 x G#XI
x x x 13 13 11 F6sus4
x x 15 15 15 x Eb/G
x x 17 x 16 x
G#XVIII
x x 18 x x x
Gtr I (E A D G B E) - 'Keyboard'
Gtr II (E A D G B E) - 'Distortion Guitar ( Dirk Sauer )'
Gtr III (E A D G B E) - 'Distortion Guitar ( Jens Ludwig )'
Gtr IV (E A D G B E) - 'Vocal ( Tobias Sammet )'
Gtr V (E A D G B E) - 'Choir (Outro)'
Gtr VI (E A D G B E) - 'Choir'
Intro
Q=134
[Gm] [Gm] [Eb] [Eb] 
[4/4] Gtr VI
W +W W +W
| | | |
[/] [/] [/] [/] 
Gtr I
Q. E E E E E Q Q Q Q Q. E E E E E Q Q Q Q
 
 ||-------------------8-|---------------|------------------8-|-----------------|
 ||o-8----10-11-10-11---|-11--10--8--6--|-8----10-11-10-11---|-11--10--8--10---|
 ||---------------------|---------------|--------------------|-----------------|
 ||---------------------|---------------|--------------------|-----------------|
 ||o--------------------|---------------|--------------------|-----------------|
 ||---------------------|---------------|--------------------|-----------------|

[F] [F] [Bb] [Eb] [F] 
[4/4] W +W H H W
| | | | |
[/] [/] [/] [/] [/] 
Q. E E E E E Q Q Q Q H H H Q Q
 
 |------------------|---------------|-------------|----------------||
 |-6----8-10-6-8-10-|-11--10--8--6--|-15----16----|-13----11--10--o||
 |------------------|---------------|-------------|----------------||
 |------------------|---------------|-------------|----------------||
 |------------------|---------------|-------------|---------------o||
 |------------------|---------------|-------------|----------------||

[Gm]Gtr VI[Gm]
W +W
| |
[/] [/]  
Gtr I
Q. E E E E E Q Q Q Q
 
 |--------------------------8---|----------------------------|
 |-8--------10---11-10---11-----|-11-----10-----8-----6------|
 |------------------------------|----------------------------|
 |------------------------------|----------------------------|
 |------------------------------|----------------------------|
 |------------------------------|----------------------------|

|
| Gtrs II, III
 
 | PM---------------------------------------------------------

| E S S E S S E S S E S S E S S E S S E S S E S S
 
 |------------------------------|----------------------------|
 |------------------------------|----------------------------|
 |------------------------------|----------------------------|
 |------------------------------|----------------------------|
 |-5--5-5-5--5-5--5--5-5--5-5-5-|--5-5-5--5-5-5-5-5-5-5-5-5/-|
 |-3--3-3-3--3-3--3--3-3--3-3-3-|--3-3-3--3-3-3-3-3-3-3-3-3/-|

[Eb]W [Eb]+W
| |
[/] [/]  
Q. E E E E E Q Q Q Q
 
 |--------------------------8---|------------------------------|
 |-8--------10---11-10---11-----|-11-----10-----8-----10-------|
 |------------------------------|------------------------------|
 |------------------------------|------------------------------|
 |------------------------------|------------------------------|
 |------------------------------|------------------------------|

|
 
 |-------------------------------------------------------|

| E S S E S S E S S E S S E S S E S S E S S E E
 
 |------------------------------|------------------------------|
 |------------------------------|------------------------------|
 |------------------------------|------------------------------|
 |-8--8-8-8--8-8--8--8-8--8-8-8-|--8-8-8--8-8-8-8-8-8--8-8\----|
 |-6--6-6-6--6-6--6--6-6--6-6-6-|--6-6-6--6-6-6-6-6-6--6-6\----|
 |------------------------------|------------------------------|

[F]W [F]+W
| |
[/] [/]  
Q. E E E E E Q Q Q Q
 
 |----------------------------|----------------------------|
 |-6--------8---10-6---8-10---|-11-----10-----8-----6------|
 |----------------------------|----------------------------|
 |----------------------------|----------------------------|
 |----------------------------|----------------------------|
 |----------------------------|----------------------------|

|
 
 | PM-------------------------------------------------------

| E S S E S S E S S E S S E S S E S S E S S E S S
 
 |----------------------------|----------------------------|
 |----------------------------|----------------------------|
 |----------------------------|----------------------------|
 |----------------------------|----------------------------|
 |-3--3-3-3-3-3--3-3-3-3--3-3-|--3-3-3--3-3-3-3-3-3-3-3-3/-|
 |-1--1-1-1-1-1--1-1-1-1--1-1-|--1-1-1--1-1-1-1-1-1-1-1-1/-|

[Bb] H [Eb] H [F] W
| | |
[/] [/] [/]  
H H H Q Q
 
 |----------------------------|-----------------------------|
 |-15-----------16------------|-13-----------11-----10------|
 |----------------------------|-----------------------------|
 |----------------------------|-----------------------------|
 |----------------------------|-----------------------------|
 |----------------------------|-----------------------------|

|
 
 |-----------------------------------------------------|

| E S S E S S E S S E S S E S S E S S E S S E E
 
 |----------------------------|-----------------------------|
 |----------------------------|-----------------------------|
 |----------------------------|-----------------------------|
 |--3-3-3-3-3-3--3-3-3-3-3-3\-|-----------------------------|
 |--1-1-1-1-1-1--1-1-1-1-1-1\-|--3-3-3-3-3-3--3-3-3--7-7----|
 |----------------------------|--1-1-1-1-1-1--1-1-1--5-5----|

[Gm]W [Gm]+W
| |
[/] [/]  
Q. E E E E E Q Q Q Q
 
 |--------------------------8---|----------------------------|
 |-8--------10---11-10---11-----|-11-----10-----8-----6------|
 |------------------------------|----------------------------|
 |------------------------------|----------------------------|
 |------------------------------|----------------------------|
 |------------------------------|----------------------------|

|
 
 | PM---------------------------------------------------------

| E S S E S S E S S E S S E S S E S S E S S E S S
 
 |------------------------------|----------------------------|
 |------------------------------|----------------------------|
 |------------------------------|----------------------------|
 |------------------------------|----------------------------|
 |-5--5-5-5--5-5--5--5-5--5-5-5-|--5-5-5--5-5-5-5-5-5-5-5-5/-|
 |-3--3-3-3--3-3--3--3-3--3-3-3-|--3-3-3--3-3-3-3-3-3-3-3-3/-|

[Eb]W [Eb]+W
| |
[/] [/]  
Q. E E E E E Q Q Q Q
 
 |--------------------------8---|------------------------------|
 |-8--------10---11-10---11-----|-11-----10-----8-----10-------|
 |------------------------------|------------------------------|
 |------------------------------|------------------------------|
 |------------------------------|------------------------------|
 |------------------------------|------------------------------|

|
 
 |-------------------------------------------------------|

| E S S E S S E S S E S S E S S E S S E S S E E
 
 |------------------------------|------------------------------|
 |------------------------------|------------------------------|
 |------------------------------|------------------------------|
 |-8--8-8-8--8-8--8--8-8--8-8-8-|--8-8-8--8-8-8-8-8-8--8-8\----|
 |-6--6-6-6--6-6--6--6-6--6-6-6-|--6-6-6--6-6-6-6-6-6--6-6\----|
 |------------------------------|------------------------------|

[F]W [F]+W [Bb] H [Eb] H
| | | |
[/] [/] [/] [/] 
Q. E E E E E Q Q Q Q H H
 
 |----------------------------|----------------------------|----------------------------|
 |-6--------8---10-6---8-10---|-11-----10-----8-----6------|-15-----------16------------|
 |----------------------------|----------------------------|----------------------------|
 |----------------------------|----------------------------|----------------------------|
 |----------------------------|----------------------------|----------------------------|
 |----------------------------|----------------------------|----------------------------|

|
 
 | PM------------------------------------------------------------------------------------

| E S S E S S E S S E S S E S S E S S E S S E S S E S S E S S E S S E S S
 
 |----------------------------|----------------------------|----------------------------|
 |----------------------------|----------------------------|----------------------------|
 |----------------------------|----------------------------|----------------------------|
 |----------------------------|----------------------------|--3-3-3-3-3-3--3-3-3-3-3-3\-|
 |-3--3-3-3-3-3--3-3-3-3--3-3-|--3-3-3--3-3-3-3-3-3-3-3-3/-|--1-1-1-1-1-1--1-1-1-1-1-1\-|
 |-1--1-1-1-1-1--1-1-1-1--1-1-|--1-1-1--1-1-1-1-1-1-1-1-1/-|----------------------------|

[F] W [Gm]W [Gm]+W[Bb5] [G5]
| | |
[/] [/] [/] 
H Q Q W +W
 
 |--------------------------|----------|--------------------||
 |-13-----------11-----10---|-8--------|-(8)----------------||
 |--------------------------|----------|--------------------||
 |--------------------------|----------|--------------------||
 |--------------------------|----------|--------------------||
 |--------------------------|----------|--------------------||

|
 
 |------------------------|

| E S S E S S E S S E E W +H +Q S S E
 
 |--------------------------|----------|--------------------||
 |--------------------------|----------|--------------------||
 |--------------------------|----------|--------------------||
 |--------------------------|-5--------|-(5)----(5)--3s5----||
 |--3-3-3-3-3-3--3-3-3--7-7-|-5--------|-(5)----(5)--1s3-5\-||
 |--1-1-1-1-1-1--1-1-1--5-5-|-3--------|-(3)----(3)------3\-||

Verse 1
[Gm]Gtr VI[Gm]
W +W
| |
[/] [/]  
Gtrs II, III
 
 PM-------------------------------------------------------

E S S E S S E S S E S S E S S E S S E S S E S S
 
 |--------------------------|------------------------------|
 |--------------------------|------------------------------|
 |--------------------------|------------------------------|
 |--------------------------|------------------------------|
 |-5--5-5-5-5-5-5-5-5-5-5-5-|--5-5-5-5--5--5-5-5-5--5-5-5/-|
 |-3--3-3-3-3-3-3-3-3-3-3-3-|--3-3-3-3--3--3-3-3-3--3-3-3/-|

|
| Gtr IV
| H. E E E Q Q. Q
 
 |--------------------------|------------------------------|
 |----------------------8---|--8-8-----10----------11------|
 |--------------------------|------------------------------|
 |--------------------------|------------------------------|
 |--------------------------|------------------------------|
 |--------------------------|------------------------------|

[Eb] W [Eb]+W
| |
[/] [/]  
 
 -------------------------------------------------------|

E S S E S S E S S E S S E S S E S S E S S E E
 
 |----------------------------|---------------------------------|
 |----------------------------|---------------------------------|
 |----------------------------|---------------------------------|
 |--8-8-8-8-8-8-8-8-8--8--8-8-|--8-8-8--8--8--8-8-8-8--8-10\----|
 |--6-6-6-6-6-6-6-6-6--6--6-6-|--6-6-6--6--6--6-6-6-6--6--8\----|
 |----------------------------|---------------------------------|

|
| Q H E E Q E Q. Q
 
 |----------------------------|---------------------------------|
 |-11-----8-----------15-15---|-15-----13-11----------13--------|
 |----------------------------|---------------------------------|
 |----------------------------|---------------------------------|
 |----------------------------|---------------------------------|
 |----------------------------|---------------------------------|

[F] W [F]+W
| |
[/] [/]  
 
 PM-----------------------------------------------------------

E S S E S S E S S E S S E S S E S S E S S E S S
 
 |------------------------------|-------------------------------|
 |------------------------------|-------------------------------|
 |------------------------------|-------------------------------|
 |------------------------------|-------------------------------|
 |--3--3-3-3-3-3-3-3-3---3--3-3-|--3--3-3-3--3--3-3-3-3--3-3-3/-|
 |--1--1-1-1-1-1-1-1-1---1--1-1-|--1--1-1-1--1--1-1-1-1--1-1-1/-|

|
| H. +Q E Q Q. Q
 
 |------------------------------|-------------------------------|
 |-10------------------(10)-----|-18-15-----15----------13------|
 |------------------------------|-------------------------------|
 |------------------------------|-------------------------------|
 |------------------------------|-------------------------------|
 |------------------------------|-------------------------------|

[Bb] H [Eb] H [F] W
| | |
[/] [/] [/] 
 
 ---------------------------------------------------------------|

E S S E S S E S S E S S E S S E S S E S S E E
 
 |---------------------------------|-----------------------------------|
 |---------------------------------|-----------------------------------|
 |---------------------------------|-----------------------------------|
 |--3--3-3-3--3-3--3--3-3-3---3--3-|--3--3--3--3--3-3-3---3--3-7-7\----|
 |--1--1-1-1--1-1--1--1-1-1---1--1-|--1--1--1--1--1-1-1---1--1-5-5\----|
 |---------------------------------|-----------------------------------|

|
| Q. E E Q +E E. E. Q +E Q
 
 |---------------------------------|-----------------------------------|
 |-15--------15---16-16-----(16)---|-13----13----13-----(13)-----------|
 |---------------------------------|-----------------------------------|
 |---------------------------------|-----------------------------------|
 |---------------------------------|-----------------------------------|
 |---------------------------------|-----------------------------------|

[Gm]W [Gm]+W
| |
[/] [/]  
 
 PM-------------------------------------------------------

E S S E S S E S S E S S E S S E S S E S S E S S
 
 |-------------------------|-------------------------------|
 |-------------------------|-------------------------------|
 |-------------------------|-------------------------------|
 |-------------------------|-------------------------------|
 |-5-5-5-5-5-5-5-5-5-5-5-5-|--5--5-5-5--5--5-5-5-5--5-5-5/-|
 |-3-3-3-3-3-3-3-3-3-3-3-3-|--3--3-3-3--3--3-3-3-3--3-3-3/-|

|
| W E Q Q. Q
 
 |-------------------------|-------------------------------|
 |-------------------------|-20-20-----22----------23------|
 |-------------------------|-------------------------------|
 |-------------------------|-------------------------------|
 |-------------------------|-------------------------------|
 |-------------------------|-------------------------------|

[Eb] W [Eb]+W
| |
[/] [/]  
 
 -------------------------------------------------|

E S S E S S E S S E S S E S S E S S E S S E E
 
 |--------------------------|-----------------------------|
 |--------------------------|-----------------------------|
 |--------------------------|-----------------------------|
 |--8-8-8-8-8-8-8-8-8-8-8-8-|--8-8-8-8-8-8-8-8-8-8-10\----|
 |--6-6-6-6-6-6-6-6-6-6-6-6-|--6-6-6-6-6-6-6-6-6-6--8\----|
 |--------------------------|-----------------------------|

|
| W W
 
 |--------------------------|-----------------------------|
 |-23-----------------------|-----------------------------|
 |--------------------------|-----------------------------|
 |--------------------------|-----------------------------|
 |--------------------------|-----------------------------|
 |--------------------------|-----------------------------|

[F]W [F]+W
| |
[/] [/]  
 
 PM---------------------------------------------------------

E S S E S S E S S E S S E S S E S S E S S E S S
 
 |---------------------------|-------------------------------|
 |---------------------------|-------------------------------|
 |---------------------------|-------------------------------|
 |---------------------------|-------------------------------|
 |-3--3-3-3-3-3-3-3-3-3--3-3-|--3--3-3-3--3--3-3-3-3--3-3-3/-|
 |-1--1-1-1-1-1-1-1-1-1--1-1-|--1--1-1-1--1--1-1-1-1--1-1-1/-|

|
| H. E E E Q Q. Q
 
 |---------------------------|-------------------------------|
 |----------------------18---|-18-18-----20----------22------|
 |---------------------------|-------------------------------|
 |---------------------------|-------------------------------|
 |---------------------------|-------------------------------|
 |---------------------------|-------------------------------|

[Bb] H [Eb] H [F] W
| | |
[/] [/] [/] 
 
 ---------------------------------------------------------------|

E S S E S S E S S E S S E S S E S S E S S E S S
 
 |--------------------------------|----------------------------------||
 |--------------------------------|----------------------------------||
 |--------------------------------|----------------------------------||
 |--3-3-3-3-3-3---3---3-3--3--3-3-|--3--3--3--3--3--3-3-3-3--7-7-7---||
 |--1-1-1-1-1-1---1---1-1--1--1-1-|--1--1--1--1--1--1-1-1-1--5-5-5---||
 |--------------------------------|----------------------------------||

|
| H +E E E E E. E. Q. Q
 
 |--------------------------------|----------------------------------||
 |-23-----------(23)-23---23-23---|-23----22----20----------22-------||
 |--------------------------------|----------------------------------||
 |--------------------------------|----------------------------------||
 |--------------------------------|----------------------------------||
 |--------------------------------|----------------------------------||

Bridge
[Cm/G]Gtr VI[Cm/G]
W +W
| |
[/] [/] 
Gtrs II, III
 
 PM---------------------------------------------------------------------

S S S S S S S S S S S S S S S S S S S S S S S S S S S S S S S S
 
 |-----------------------------------|------------------------------------|
 |-----------------------------------|------------------------------------|
 |-----------------------------------|------------------------------------|
 |--5-5-5-5-5-5-5-5--5-5-5-5-5-5-5-5-|--5-5-5-5-5-5-5-5--5-5-5-5-5-5-5-5\-|
 |--3-3-3-3-3-3-3-3--3-3-3-3-3-3-3-3-|--3-3-3-3-3-3-3-3--3-3-3-3-3-3-3-3\-|
 |-----------------------------------|------------------------------------|

|
| Gtr IV
| H H H H
 
 |-----------------------------------|------------------------------------|
 |-20---------------22---------------|-23---------------25----------------|
 |-----------------------------------|------------------------------------|
 |-----------------------------------|------------------------------------|
 |-----------------------------------|------------------------------------|
 |-----------------------------------|------------------------------------|

[Bb] W [Bb] +W
| |
[/] [/] 
 
 ------------------------------------------------------------|

E S S E S S E S S E S S E S S E S S E S S E S S
 
 |-------------------------------|---------------------------------|
 |-------------------------------|---------------------------------|
 |-------------------------------|---------------------------------|
 |-------------------------------|---------------------------------|
 |--5--5--5--5--5-5--5-5-5-5-5-5-|---5--5-5-5-5-5-5--5-5-5--5-5----|
 |--3--3--3--3--3-3--3-3-3-3-3-3-|---3--3-3-3-3-3-3--3-3-3--3-3----|

|
| E. E. E H +H Q. E
 
 |-------------------------------|---------------------------------|
 |-27----25----23---20-----------|-(20)--------------------15------|
 |-------------------------------|---------------------------------|
 |-------------------------------|---------------------------------|
 |-------------------------------|---------------------------------|
 |-------------------------------|---------------------------------|

[Cm] W [Cm]+W
| |
[/] [/] 
E S S E E S S E E S S E E S S E E S S E E
 
 |---------------------------------|----------------------|
 |---------------------------------|----------------------|
 |---------------------------------|----------------------|
 |--5-----------3---------5--------|----6-------5-----3-5-|
 |--3--3--3--3--3--3--3-3-3---3--3-|--3-3-3-3-3-3-3-3-3-3-|
 |---------------------------------|----------------------|

|
| E. E. E Q. +E W
 
 |---------------------------------|----------------------|
 |-13----13----15-16--------(16)---|----------------------|
 |---------------------------------|----------------------|
 |---------------------------------|----------------------|
 |---------------------------------|----------------------|
 |---------------------------------|----------------------|

[G#] W [Dm/Bb]H [Dm/Bb]+E Q E
| | |
[/] [/] [/] 
Q E E E E E E S S S S S S S S E. Q S
 
 |-----------------------|------------------------------||
 |-----------------------|------------------------------||
 |-----------------------|------------------------------||
 |-----------------------|------------------------------||
 |--6------6--6--6-6-6-6-|-8-8-8-8-8-8-8-8--8-----------||
 |--4------4--4--4-4-4-4-|-6-6-6-6-6-6-6-6--6-----------||

|
| E. E. E H W
 
 |-----------------------|------------------------------||
 |-16--16----15-13-------|------------------------------||
 |-----------------------|------------------------------||
 |-----------------------|------------------------------||
 |-----------------------|------------------------------||
 |-----------------------|------------------------------||

Chorus
CmXV Fm
Gtr VI
W W
| |
[/] [/]  
Gtrs II, III
W W
 
 |------------------|---------------------|
 |------------------|---------------------|
 |------------------|---------------------|
 |-5----------------|---------------------|
 |-3----------------|---3-----------------|
 |------------------|---1-----------------|

|
| Gtr IV
| Q Q Q E E +Q Q Q E E
 
 |------------------|---------------------|
 |----16--18--20-21-|-(21)--20--18--20-18-|
 |------------------|---------------------|
 |------------------|---------------------|
 |------------------|---------------------|
 |------------------|---------------------|

BbXV Cm/Ab Dm/Bb
W H H
| | |
[/] [/] [/]  
W H H
 
 |---------------------|----------------------|
 |---------------------|----------------------|
 |---------------------|----------------------|
 |---3-----------------|----------------------|
 |---1-----------------|---6--------8---------|
 |---------------------|---4--------6---------|

|
| +Q Q Q E E +Q Q Q E E
 
 |---------------------|----------------------|
 |-(18)--15--16--18-20-|-(20)--18--16--15-16--|
 |---------------------|----------------------|
 |---------------------|----------------------|
 |---------------------|----------------------|
 |---------------------|----------------------|

[Eb6/G] W [G#] W [Dm/Bb] W [Dm/Bb]+H [G#]Q [Dm/Bb]Q
| | | | | |
[/] [/] [/] [/] [/] [/] 
W W W +H Q Q
 
 |---------------------|---------------------|--------------|---------------|
 |---------------------|---------------------|--------------|---------------|
 |---------------------|---------------------|--------------|---------------|
 |---5-----------------|---------------------|--------------|---------------|
 |---3-----------------|---6-----------------|---8----------|-(8)----6--8---|
 |---------------------|---4-----------------|---6----------|-(6)----4--6---|

|
| +Q Q E Q E +Q Q E Q E +H. Q W
 
 |---------------------|---------------------|--------------|---------------|
 |-(16)--16--18-20--21-|-(21)--20--18-20--18-|-(18)---------|---------------|
 |---------------------|---------------------|--------------|---------------|
 |---------------------|---------------------|--------------|---------------|
 |---------------------|---------------------|--------------|---------------|
 |---------------------|---------------------|--------------|---------------|

CmXV Fm
W W
| |
[/] [/]  
W W
 
 |------------------|---------------------|
 |------------------|---------------------|
 |------------------|---------------------|
 |-5----------------|---------------------|
 |-3----------------|---3-----------------|
 |------------------|---1-----------------|

|
| Q Q Q E E +Q Q Q E E
 
 |------------------|---------------------|
 |----16--18--20-21-|-(21)--20--18--20-18-|
 |------------------|---------------------|
 |------------------|---------------------|
 |------------------|---------------------|
 |------------------|---------------------|

BbXV Cm/Ab Dm/Bb
W H H
| | |
[/] [/] [/]  
W H H
 
 |---------------------|----------------------|
 |---------------------|----------------------|
 |---------------------|----------------------|
 |---3-----------------|----------------------|
 |---1-----------------|---6--------8---------|
 |---------------------|---4--------6---------|

|
| +Q Q Q E E +Q Q Q E E
 
 |---------------------|----------------------|
 |-(18)--15--16--18-20-|-(20)--18--16--15-16--|
 |---------------------|----------------------|
 |---------------------|----------------------|
 |---------------------|----------------------|
 |---------------------|----------------------|

[Eb6/G] W [G#] W
| |
[/] [/]  
W W
 
 |---------------------|---------------------|
 |---------------------|---------------------|
 |---------------------|---------------------|
 |---5-----------------|---------------------|
 |---3-----------------|---6-----------------|
 |---------------------|---4-----------------|

|
| +Q Q E Q E +Q Q E Q E
 
 |---------------------|---------------------|
 |-(16)--16--18-20--21-|-(21)--20--18-20--18-|
 |---------------------|---------------------|
 |---------------------|---------------------|
 |---------------------|---------------------|
 |---------------------|---------------------|

[Dm/Bb] W [Dm/Bb]+E H Q E
| |
[/] [/]  
W E. H. S
 
 |--------------|-------------------||
 |--------------|-------------------||
 |--------------|-------------------||
 |--------------|-------------------||
 |---8----------|-/8\---------------||
 |---6----------|-/6\---------------||

|
| +H. Q W
 
 |--------------|-------------------||
 |-(18)---------|-------------------||
 |--------------|-------------------||
 |--------------|-------------------||
 |--------------|-------------------||
 |--------------|-------------------||

Bridge
[C5]Gtrs II, I[F5/C]II[C5] [Ab/C] [C5] [F5/C]
E S S S S E S S S S E S S S S E S S S S E S S E E
 
 |---------------------------|-------------------------|
 |---------------------------|-------------------------|
 |---------------------------|-------------------------|
 |-5---------3---------5-----|-----6---------5-----3-5-|
 |-3-3-3-3-3-3-3-3-3-3-3-3-3-|-3-3-3-3-3-3-3-3-3-3-3-3-|
 |---------------------------|-------------------------|

[C5]E S S S S [F5/C]E S S S S [C5]E S S S S [Ab/C]E S S S S [C5]E S S [C5]E +E
 
 |---------------------------|-----------------------------||
 |---------------------------|-----------------------------||
 |---------------------------|-----------------------------||
 |-5---------3---------5-----|-----6---------5-----5-(5)b7-||
 |-3-3-3-3-3-3-3-3-3-3-3-3-3-|-3-3-3-3-3-3-3-3-3-3-3-(3)b5-||
 |---------------------------|-----------------------------||

Verse 2
[Gm]Gtr VI[Gm]
W +W
| |
[/] [/]  
Gtrs II, III
 
 PM---------------------------------------------------------

E S S E S S E S S E S S E S S E S S E S S E S S
 
 |---------------------------|-------------------------------|
 |---------------------------|-------------------------------|
 |---------------------------|-------------------------------|
 |---------------------------|-------------------------------|
 |-5--5-5-5-5-5-5-5-5-5--5-5-|--5-5-5--5--5--5-5-5-5--5-5-5/-|
 |-3--3-3-3-3-3-3-3-3-3--3-3-|--3-3-3--3--3--3-3-3-3--3-3-3/-|

|
| Gtr IV
| H. E E Q E Q. Q
 
 |---------------------------|-------------------------------|
 |----------------------15---|-15-----15-15----------11------|
 |---------------------------|-------------------------------|
 |---------------------------|-------------------------------|
 |---------------------------|-------------------------------|
 |---------------------------|-------------------------------|

[Eb] W [Eb]+W
| |
[/] [/] 
 
 -------------------------------------------------------|

E S S E S S E S S E S S E S S E S S E S S E E
 
 |--------------------------------|-----------------------------|
 |--------------------------------|-----------------------------|
 |--------------------------------|-----------------------------|
 |--8--8-8-8--8--8-8-8-8---8--8-8-|--8-8-8-8-8-8-8-8-8-8-10\----|
 |--6--6-6-6--6--6-6-6-6---6--6-6-|--6-6-6-6-6-6-6-6-6-6--8\----|
 |--------------------------------|-----------------------------|

|
| E Q Q. +Q W
 
 |--------------------------------|-----------------------------|
 |-11-11-----11----------(11)-----|-----------------------------|
 |--------------------------------|-----------------------------|
 |--------------------------------|-----------------------------|
 |--------------------------------|-----------------------------|
 |--------------------------------|-----------------------------|

[F]W [F]+W
| |
[/] [/]  
 
 PM----------------------------------------------------------

E S S E S S E S S E S S E S S E S S E S S E S S
 
 |----------------------------|-------------------------------|
 |----------------------------|-------------------------------|
 |----------------------------|-------------------------------|
 |----------------------------|-------------------------------|
 |-3--3-3-3-3-3-3-3-3--3--3-3-|--3-3-3--3--3--3-3-3-3--3-3-3/-|
 |-1--1-1-1-1-1-1-1-1--1--1-1-|--1-1-1--1--1--1-1-1-1--1-1-1/-|

|
| H. E E Q E Q. Q
 
 |----------------------------|-------------------------------|
 |--------------------18-18---|-18-----15-13----------11------|
 |----------------------------|-------------------------------|
 |----------------------------|-------------------------------|
 |----------------------------|-------------------------------|
 |----------------------------|-------------------------------|

[Bb] H [Eb]H [F] W
| | |
[/] [/] [/]  
 
 --------------------------------------------------------|

E S S E S S E S S E S S E S S E S S E S S E E
 
 |------------------------------|------------------------------|
 |------------------------------|------------------------------|
 |------------------------------|------------------------------|
 |--3--3-3-3-3-3-3-3-3--3--3-3\-|------------------------------|
 |--1--1-1-1-1-1-1-1-1--1--1-1\-|--3--3-3-3--3--3-3-3-3-7-7----|
 |------------------------------|--1--1-1-1--1--1-1-1-1-5-5----|

|
| H. E E E Q Q. Q
 
 |------------------------------|------------------------------|
 |-11------------------18-18----|-18-18-----18-----------------|
 |------------------------------|------------------------------|
 |------------------------------|------------------------------|
 |------------------------------|------------------------------|
 |------------------------------|------------------------------|

[Gm]W [Gm]+W
| |
[/] [/]  
 
 PM-------------------------------------------------------

E S S E S S E S S E S S E S S E S S E S S E S S
 
 |-------------------------|-------------------------------|
 |-------------------------|-------------------------------|
 |-------------------------|-------------------------------|
 |-------------------------|-------------------------------|
 |-5-5-5-5-5-5-5-5-5-5-5-5-|--5--5-5-5--5--5-5-5-5--5-5-5/-|
 |-3-3-3-3-3-3-3-3-3-3-3-3-|--3--3-3-3--3--3-3-3-3--3-3-3/-|

|
| W E Q Q. Q
 
 |-------------------------|-------------------------------|
 |-------------------------|-20-20-----22----------23------|
 |-------------------------|-------------------------------|
 |-------------------------|-------------------------------|
 |-------------------------|-------------------------------|
 |-------------------------|-------------------------------|

[Eb] W [Eb]+W
| |
[/] [/]  
 
 ------------------------------------------------------|

E S S E S S E S S E S S E S S E S S E S S E E
 
 |-------------------------------|-----------------------------|
 |-------------------------------|-----------------------------|
 |-------------------------------|-----------------------------|
 |--8--8-8-8--8-8-8-8-8-8---8--8-|--8-8-8-8-8-8-8-8-8-8-10\----|
 |--6--6-6-6--6-6-6-6-6-6---6--6-|--6-6-6-6-6-6-6-6-6-6--8\----|
 |-------------------------------|-----------------------------|

|
| E Q H +E W
 
 |-------------------------------|-----------------------------|
 |-23-23-----23-----------(23)---|-----------------------------|
 |-------------------------------|-----------------------------|
 |-------------------------------|-----------------------------|
 |-------------------------------|-----------------------------|
 |-------------------------------|-----------------------------|

[F]W [F]+W
| |
[/] [/]  
 
 PM---------------------------------------------------------

E S S E S S E S S E S S E S S E S S E S S E S S
 
 |---------------------------|-------------------------------|
 |---------------------------|-------------------------------|
 |---------------------------|-------------------------------|
 |---------------------------|-------------------------------|
 |-3-3-3-3-3-3-3-3-3--3--3-3-|--3--3-3-3--3--3-3-3-3--3-3-3/-|
 |-1-1-1-1-1-1-1-1-1--1--1-1-|--1--1-1-1--1--1-1-1-1--1-1-1/-|

|
| Q Q Q E E E Q Q. Q
 
 |---------------------------|-------------------------------|
 |-------------------18-18---|-18-18-----20----------22------|
 |---------------------------|-------------------------------|
 |---------------------------|-------------------------------|
 |---------------------------|-------------------------------|
 |---------------------------|-------------------------------|

[Bb] H [Eb] H [F] W
| | |
[/] [/] [/]  
 
 ----------------------------------------------------------|

E S S E S S E S S E E E S S E S S E S S E E
 
 |-------------------------------|-----------------------------||
 |-------------------------------|-----------------------------||
 |-------------------------------|-----------------------------||
 |--3-3-3-3-3-3---3---3-3--3--3\-|-----------------------------||
 |--1-1-1-1-1-1---1---1-1--1--1\-|--3-3-3--3--3--3-3-3-3--7-7/-||
 |-------------------------------|--1-1-1--1--1--1-1-1-1--5-5/-||

|
| H +E E E E Q E Q. Q
 
 |-------------------------------|-----------------------------||
 |-23-----------(23)-23---23-25--|-23-----22-20----------22----||
 |-------------------------------|-----------------------------||
 |-------------------------------|-----------------------------||
 |-------------------------------|-----------------------------||
 |-------------------------------|-----------------------------||

Bridge
[Cm/G]Gtr VI[Cm/G]
W +W
| |
[/] [/] 
Gtrs II, III
 
 PM---------------------------------------------------------------------

S S S S S S S S S S S S S S S S S S S S S S S S S S S S S S S S
 
 |-----------------------------------|------------------------------------|
 |-----------------------------------|------------------------------------|
 |-----------------------------------|------------------------------------|
 |--5-5-5-5-5-5-5-5--5-5-5-5-5-5-5-5-|--5-5-5-5-5-5-5-5--5-5-5-5-5-5-5-5\-|
 |--3-3-3-3-3-3-3-3--3-3-3-3-3-3-3-3-|--3-3-3-3-3-3-3-3--3-3-3-3-3-3-3-3\-|
 |-----------------------------------|------------------------------------|

|
| Gtr IV
| H H H H
 
 |-----------------------------------|------------------------------------|
 |-20---------------22---------------|-23---------------25----------------|
 |-----------------------------------|------------------------------------|
 |-----------------------------------|------------------------------------|
 |-----------------------------------|------------------------------------|
 |-----------------------------------|------------------------------------|

[Bb] W [Bb] +W
| |
[/] [/] 
 
 ------------------------------------------------------------|

E S S E S S E S S E S S E S S E S S E S S E S S
 
 |-------------------------------|---------------------------------|
 |-------------------------------|---------------------------------|
 |-------------------------------|---------------------------------|
 |-------------------------------|---------------------------------|
 |--5--5--5--5--5-5--5-5-5-5-5-5-|---5--5-5-5-5-5-5--5-5-5--5-5----|
 |--3--3--3--3--3-3--3-3-3-3-3-3-|---3--3-3-3-3-3-3--3-3-3--3-3----|

|
| E. E. E H +H Q. E
 
 |-------------------------------|---------------------------------|
 |-27----25----23---20-----------|-(20)--------------------15------|
 |-------------------------------|---------------------------------|
 |-------------------------------|---------------------------------|
 |-------------------------------|---------------------------------|
 |-------------------------------|---------------------------------|

[Cm] W [Cm]+W
| |
[/] [/]  
E S S E E S S E E S S E E S S E E S S E E
 
 |------------------------------|----------------------|
 |------------------------------|----------------------|
 |------------------------------|----------------------|
 |--5-----------3---------5-----|----6-------5-----3-5-|
 |--3--3--3--3--3--3--3-3-3-3-3-|--3-3-3-3-3-3-3-3-3-3-|
 |------------------------------|----------------------|

|
| E. E. E Q. E W
 
 |------------------------------|----------------------|
 |-13----13----15-16------------|----------------------|
 |------------------------------|----------------------|
 |------------------------------|----------------------|
 |------------------------------|----------------------|
 |------------------------------|----------------------|

[G#] W [Dm/Bb]H [Dm/Bb]+E Q E
| | |
[/] [/] [/] 
Q E E E E E E S S S S S S S S E. Q S
 
 |-----------------------|------------------------------||
 |-----------------------|------------------------------||
 |-----------------------|------------------------------||
 |-----------------------|------------------------------||
 |--6------6--6--6-6-6-6-|-8-8-8-8-8-8-8-8--8-----------||
 |--4------4--4--4-4-4-4-|-6-6-6-6-6-6-6-6--6-----------||

|
| E. E. E H W
 
 |-----------------------|------------------------------||
 |-16--16----15-13-------|------------------------------||
 |-----------------------|------------------------------||
 |-----------------------|------------------------------||
 |-----------------------|------------------------------||
 |-----------------------|------------------------------||

Chorus
CmXV Fm
Gtr VI
W W
| |
[/] [/]  
Gtrs II, III
W W
 
 |------------------|---------------------|
 |------------------|---------------------|
 |------------------|---------------------|
 |-5----------------|---------------------|
 |-3----------------|---3-----------------|
 |------------------|---1-----------------|

|
| Gtr IV
| Q Q Q E E +Q Q Q E E
 
 |------------------|---------------------|
 |----16--18--20-21-|-(21)--20--18--20-18-|
 |------------------|---------------------|
 |------------------|---------------------|
 |------------------|---------------------|
 |------------------|---------------------|

BbXV Cm/Ab Dm/Bb
W H H
| | |
[/] [/] [/]  
W H H
 
 |---------------------|----------------------|
 |---------------------|----------------------|
 |---------------------|----------------------|
 |---3-----------------|----------------------|
 |---1-----------------|---6--------8---------|
 |---------------------|---4--------6---------|

|
| +Q Q Q E E +Q Q Q E E
 
 |---------------------|----------------------|
 |-(18)--15--16--18-20-|-(20)--18--16--15-16--|
 |---------------------|----------------------|
 |---------------------|----------------------|
 |---------------------|----------------------|
 |---------------------|----------------------|

[Eb6/G] W [G#] W [Dm/Bb] W [Dm/Bb]+H [G#]Q [Dm/Bb]Q
| | | | | |
[/] [/] [/] [/] [/] [/] 
W W W +H Q Q
 
 |---------------------|---------------------|--------------|---------------|
 |---------------------|---------------------|--------------|---------------|
 |---------------------|---------------------|--------------|---------------|
 |---5-----------------|---------------------|--------------|---------------|
 |---3-----------------|---6-----------------|---8----------|-(8)----6--8---|
 |---------------------|---4-----------------|---6----------|-(6)----4--6---|

|
| +Q Q E Q E +Q Q E Q E +H. Q W
 
 |---------------------|---------------------|--------------|---------------|
 |-(16)--16--18-20--21-|-(21)--20--18-20--18-|-(18)---------|---------------|
 |---------------------|---------------------|--------------|---------------|
 |---------------------|---------------------|--------------|---------------|
 |---------------------|---------------------|--------------|---------------|
 |---------------------|---------------------|--------------|---------------|

CmXV Fm
W W
| |
[/] [/]  
W W
 
 |------------------|---------------------|
 |------------------|---------------------|
 |------------------|---------------------|
 |-5----------------|---------------------|
 |-3----------------|---3-----------------|
 |------------------|---1-----------------|

|
| Q Q Q E E +Q Q Q E E
 
 |------------------|---------------------|
 |----16--18--20-21-|-(21)--20--18--20-18-|
 |------------------|---------------------|
 |------------------|---------------------|
 |------------------|---------------------|
 |------------------|---------------------|

BbXV Cm/Ab Dm/Bb
W H H
| | |
[/] [/] [/]  
W H H
 
 |---------------------|----------------------|
 |---------------------|----------------------|
 |---------------------|----------------------|
 |---3-----------------|----------------------|
 |---1-----------------|---6--------8---------|
 |---------------------|---4--------6---------|

|
| +Q Q Q E E +Q Q Q E E
 
 |---------------------|----------------------|
 |-(18)--15--16--18-20-|-(20)--18--16--15-16--|
 |---------------------|----------------------|
 |---------------------|----------------------|
 |---------------------|----------------------|
 |---------------------|----------------------|

[Eb6/G] W [G#] W
| |
[/] [/]  
W W
 
 |---------------------|---------------------|
 |---------------------|---------------------|
 |---------------------|---------------------|
 |---5-----------------|---------------------|
 |---3-----------------|---6-----------------|
 |---------------------|---4-----------------|

|
| +Q Q E Q E +Q Q E Q E
 
 |---------------------|---------------------|
 |-(16)--16--18-20--21-|-(21)--20--18-20--18-|
 |---------------------|---------------------|
 |---------------------|---------------------|
 |---------------------|---------------------|
 |---------------------|---------------------|

[Dm/Bb] W [Dm/Bb]+E H Q E
| |
[/] [/]  
W E. H. S
 
 |--------------|-------------------||
 |--------------|-------------------||
 |--------------|-------------------||
 |--------------|-------------------||
 |---8----------|-\8----------------||
 |---6----------|-\6----------------||

|
| +H. Q W
 
 |--------------|-------------------||
 |-(18)---------|-------------------||
 |--------------|-------------------||
 |--------------|-------------------||
 |--------------|-------------------||
 |--------------|-------------------||

Melody
[Cm/G]Gtr VI[Cm/G]
W +W
| |
[/] [/] 
Gtr I
Q. E E E E E Q Q Q Q
 
 ||------------------------------13---|--------------------------------|
 ||o-13----------15-16---15---16------|-16------15-------13-----11-----|
 ||-----------------------------------|--------------------------------|
 ||-----------------------------------|--------------------------------|
 ||o----------------------------------|--------------------------------|
 ||-----------------------------------|--------------------------------|

|
| Gtrs II, III
 
 | PM----| PM-----| PM-------| PM----| PM| PM|

| E S S S S E S S S S E S S S S E S S S S E S S E S S
 
 ||-----------------------------------|--------------------------------|<br /

Important: The song above is NOT stored on the Chordie server. The original song is hosted at www.guitaretab.com. Chordie works as a search engine and provides on-the-fly formatting. Chordie does not index songs against artists'/composers' will. To remove this song please click here.

Text color:
Chord color:
Chord grids: 
Font size:    
Page size: 

Ab/C Bb Bb5 C5 Cm Dm/Bb Eb Eb6/G F F5/C G# G5 Gm
Rate #3 of 4 versions

Login - add to songbook

SHARE PAGE  




You need to log in to post comments