Guitar Tabs, Chords and Lyrics
Server problems seems to be fixed. Chordie has been experiencing problems with songs disappearing. These issues now seems to be fixed, but still verifying the fix. If you find anything strange, please email admin@chordie.com.


The Unbeliever  Edguy

/\/\/\/\/\/\/\/\/\/\/\/\/\/\/\/\/\/\/\/\/\/\/\/\/\
< Title: The Unbeliever >
< Artist: Edguy >
< Album: Theater of salvation >
< >
< Trancribed by: Fredrik Olsson and Niklas Lehto >
< >
< Send your comments, suggestion e.t.c to: >
< fredrik.olsson@mbox329.swipnet.se >
< or / and >
< dreadman@mail.bip.net >
\/\/\/\/\/\/\/\/\/\/\/\/\/\/\/\/\/\/\/\/\/\/\/\/\/
*Disable word wrap under edit to view this document correctly!
Tablature explanation:
h = hammer on . = Palm mute
p = pull off A.H = Artificial harmonics
b = Bend pb = prebend
r = release bend s = slide
All guitars are 1/2 downed
INTRO:
eb||-----|
Bb||-----|
Gb||-----|
Db||-----|
Ab||19s7-|
Eb||-----|
[Ebm] Left
 
 eb||--------------------------------|---------------------------------|
 Bb||--------------------------------|---------------------------------|
 Gb||--------------------------------|---------------------------------|
 Db||--------------------------------|------------------------9-9-7----|
 Ab||7---7-7-7---7---7-7-7---7---7-7-|7---7---7-7-7---7---7-7-------10-|
 Eb||--------------------------------|---------------------------------|

P.M . . . . . . . . . . . . . . . . . . . . . .
[Ebsus2] Left
 
 eb||--------------------------------|---------------------------------|
 Bb||--------------------------------|---------------------------------|
 Gb||--------------------------------|---------------------------------|
 Db||--------------------------------|------------------------9-9-7----|
 Ab||7---7-7-7---7---7-7-7---7---7-7-|7---7---7-7-7---7---7-7-------10-|
 Eb||--------------------------------|---------------------------------|

. . . . . . . . . . . . . . . . . . . . . . .
[Db] Both
 
 eb||--------------------------------|---------------------------------|
 Bb||--------------------------------|---------------------------------|
 Gb||--------------------------------|---------------------------------|
 Db||--------------------------------|------------------------9-9-7----|
 Ab||7---7-7-7---7---7-7-7---7---7-7-|7---7---7-7-7---7---7-7-------10-|
 Eb||--------------------------------|---------------------------------|

. . . . . . . . . . . . . . . . . . . . . . .
[Abm] Both
 
 eb||--------------------------------|8-8-8-8-7-7-7-7---------------------|
 Bb||--------------------------------|----------------10-10-10-10---------|
 Gb||--------------------------------|----------------------------9-9-9-9-|
 Db||--------------------------------|------------------------------------|
 Ab||7---7-7-7---7---7-7-7---7---7-7-|------------------------------------|
 Eb||--------------------------------|------------------------------------|

. . . . . . . . . . . |. . . . . . . . . . . . . . . . |
Ok. I know this part isn't correct,
| |
Suggestions are welcome!!!
 
 eb||------------------------------------|
 Bb||8-8-10-10-8-8-7-7-8-8-7-7-----------|
 Gb||--------------------------7-7-------|
 Db||------------------------------9-9---|
 Ab||------------------------------------|
 Eb||------------------------------------|

. . . . . . . . . . . . . . . .
INTRO + VERSE:
[Ebm]  
 
 eb||--------------------------------|--------------------------------|
 Bb||--------------------------------|--------------------------------|
 Gb||--------------------------------|--------------------------------|
 Db||--------------------------------|--------------------------------|
 Ab||2---2-2-2---2---2-2-2---2---2-2-|2---2---2-2-2---2---5---4---5---|
 Eb||0---0-0-0---0---0-0-0---0---0-0-|0---0---0-0-0---0---3---2---3---|

. . . . . . . . . . . . . . . . .
[Ebsus2]  
 
 eb||--------------------------------|--------------------------------|
 Bb||--------------------------------|--------------------------------|
 Gb||--------------------------------|--------------------------------|
 Db||--------------------------------|--------------------------------|
 Ab||2---2-2-2---2---2-2-2---2---2-2-|2---2---2-2-2---2---5---4---5---|
 Eb||0---0-0-0---0---0-0-0---0---0-0-|0---0---0-0-0---0---3---2---3---|

. . . . . . . . . . . . . . . . .
[Db]  
 
 eb||--------------------------------|--------------------------------|
 Bb||--------------------------------|--------------------------------|
 Gb||--------------------------------|--------------------------------|
 Db||--------------------------------|--------------------------------|
 Ab||2---2-2-2---2---2-2-2---2---2-2-|2---2---2-2-2---2---5---4---5---|
 Eb||0---0-0-0---0---0-0-0---0---0-0-|0---0---0-0-0---0---3---2---3---|

. . . . . . . . . . . . . . . . .
[Abm] Left
 
 eb||--------------------------------|--------------------------------|
 Bb||--------------------------------|--------------------------------|
 Gb||--------------------------------|--------------------------------|
 Db||--------------------------------|--------------------------------|
 Ab||7---7-7-7---7---7-7-7---7---7-7-|----7---5---7---8---7---5-------|
 Eb||5---5-5-5---5---5-5-5---5---5-5-|----------------------------8---|

||. . . . . . . . . . . . . . . . . . |
|| Right |
 
 eb||--------------------------------|--------------------------------|
 Bb||--------------------------------|--------------------------------|
 Gb||--------------------------------|--------------------------------|
 Db||--------------------------------|--------------------------------|
 Ab||7---7-7-7---7---7-7-7---7---7-7-|7---3---2---3---5---3---2---0---|
 Eb||5---5-5-5---5---5-5-5---5---5-5-|5---5---5---5---5---5---5---5---|

. . . . . . . . . . . . . . . . . .
INTRO ONLY:
[B] Left[Ab] [Db] [Bb]
 
 eb||-------|-------|-------|----------------|
 Bb||-------|-------|-------|----------------|
 Gb||-------|-------|-------|------------A.H-|
 Db||5------|-------|7------|4-----4-----4~--|
 Ab||3------|7------|5------|--2-2---2-2-----|
 Eb||-------|5------|-------|----------------|

|| . . . . |
|| Right |
 
 eb||-------|-------|-------|----------------|
 Bb||-------|-------|-------|----------------|
 Gb||-------|-------|-------|----------------|
 Db||-------|-------|-------|1-----1-----1~--|
 Ab||-------|-------|-------|--2-2---2-2-----|
 Eb||-------|-------|-------|----------------|

. . . .
Verse:
BRIDGE:
 
 eb||--------------|--------------------|---------------|------------------|-
 -------------|----------------|---------------|----------------|
 Bb||--------------|--------------------|---------------|------------------|-
 -------------|----------------|---------------|----------------|
 Gb||--------------|--------------------|---------------|------------------|-
 -------------|----------------|---------------|----------------|
 Db||7-------------|--------------------|7--------------|------------------|-
 -------------|----------------|---------------|----------------|
 Ab||5-------------|----------------7---|5--------------|------------------|7
 -------------|------------2---|7--------------|----------------|
 Eb||--------------|----------------5---|---------------|------------------|5
 -------------|------------0---|5--------------|----------------|

||
|
|| Clean guitar with some chorus added
|
 
 eb||--------------|10------10----------|---------------|10------10---8----|-
 -------------|8-----8---------|---------------|8-----8---8-----|
 Bb||--------------|---10------8---10---|-------7-------|---10----------10-|-
 -------------|----------------|---------------|----------------|
 Gb||-------7------|--------------------|---------7---7-|------------------|-
 -------------|--9---------9---|---------------|--9---------9---|
 Db||0-------------|--------------------|0--------------|------------------|-
 ------7------|----------------|-------7-------|----------------|
 Ab||--------------|--------------------|---------------|------------------|0
 -------------|----------------|0--------------|----------------|
 Eb||--------------|--------------------|---------------|------------------|-
 -------------|----------------|---------------|----------------|
 eb||--------------|--------------------|--------------|-------------|-------
 ---------|----------------|----------------|
 Bb||--------------|--------------------|--------------|-------------|-------
 ---------|----------------|----------------|
 Gb||--------------|--------------------|--------------|-------------|-------
 ---------|----------------|----------------|
 Db||7-------------|--------------------|7-------------|--------12s5-|5---5-5
 -5---5-5-|5---5-5-5---5---|----------------|
 Ab||5-------------|----------------7---|5-------------|--------10s3-|3---3-3
 -3---3-3-|3---3-3-3---3-7-|9-9-9-9-9-9-9-9-|
 Eb||--------------|----------------5---|--------------|-------------|-------
 ---------|--------------5-|7-7-7-7-7-7-7-7-|

|| | . .
. . . . . . . . . . . . . .
|| Clean guitar with some chorus added |
 
 eb||--------------|10------10----------|--------------|-------------|
 Bb||--------------|---10------8---10---|--------------|7-----7-10---|
 Gb||-------7------|--------------------|-------7------|--7----------|
 Db||0-------------|--------------------|0-------------|-------------|
 Ab||--------------|--------------------|--------------|-------------|
 Eb||--------------|--------------------|--------------|-------------|

FILL-IN:
Left
 
 eb||--------------------------------|
 Bb||--------------------------------|
 Gb||--------------------------------|
 Db||--------------------------------|
 Ab||9---9-9-9---7---9---7---5---4---|
 Eb||7---7-7-7---5---7---5---3---2---|

||. . . . . . . . . |
|| Right |
 
 eb||--------------------------------|
 Bb||--------------------------------|
 Gb||--------------------------------|
 Db||9---9-9-9---7---9---7-----------|
 Ab||------------------------10--9---|
 Eb||--------------------------------|

. . . . . . . . .
CHORUS:
Both
 
 eb||-------------------|------------------|-------------------|-------------

---|
 
 Bb||-------------------|------------------|-------------------|-------------

---|
 
 Gb||-------------------|------------------|-------------------|-------------

---|
 
 Db||-------------4-----|------4---4---2-4-|5------------------|-------------

---|
 
 Ab||2------------2-----|------2---2---0-2-|3------------5-----|-------------

---|
 
 Eb||0------------------|------------------|-------------3-----|-------------

---|
. .
Left
 
 eb||------------------------|------------------------|----------------------
 --|--------------------------------|
 Bb||------------------------|------------------------|----------------------
 --|--------------------------------|
 Gb||------------------------|------------------------|----------------------
 --|--------------------------------|
 Db||5-----5-----5-----5-----|5-----5-----5-----5-----|7-----7-----7-----7---
 --|5h7---------5h7---------5h7---7-|
 Ab||--3-3---3-3---3-3---3-3-|--3-3---3-3---3-3---3-3-|--5-5---5-5---5-5---5-
 5-|----5-5-5-5-----5-5-5-5---------|
 Eb||------------------------|------------------------|----------------------
 --|--------------------------------|

|| . . . . . . . . . . . . . . . . . . . . . . .
. . . . . . . . . |
|| Right
|
 
 eb||------------------------|------------------------|----------------------
 --|--------------------------------|
 Bb||------------------------|------------------------|----------------------
 --|--------------------------------|
 Gb||------------------------|------------------------|----------------------
 --|--------------------------------|
 Db||2-----2-----2-----2-----|2-----2-----2-----2-----|4-----4-----4-----4---
 --|2h4---------2h4---------2h4---4-|
 Ab||--3-3---3-3---3-3---3-3-|--3-3---3-3---3-3---3-3-|--5-5---5-5---5-5---5-
 5-|----5-5-5-5-----5-5-5-5---------|
 Eb||------------------------|------------------------|----------------------
 --|--------------------------------|

. . . . . . . . . . . . . . . . . . . . . . . . . . . . . . . . . . .
. . . . . . . . . . . . .
Both
 
 eb||-------------------|------------------|-------------------|-------------

---|
 
 Bb||-------------------|------------------|-------------------|-------------

---|
 
 Gb||-------------------|------------------|-------------------|-------------

---|
 
 Db||-------------4-----|------4---4---2-4-|5------------------|-------------

---|
 
 Ab||2------------2-----|------2---2---0-2-|3------------5-----|-------------

---|
 
 Eb||0------------------|------------------|-------------3-----|-------------

---|
. .
Left
 
 eb||------------------------|------------------------|----------------------
 --|------------------|
 Bb||------------------------|------------------------|----------------------
 --|------------------|
 Gb||------------------------|------------------------|----------------------
 --|------A.H---------|
 Db||5-----5-----5-----5-----|5-----5-----5-----5-----|7-----7-----7-----7---
 --|7-7-7-7-7-7-7s2---|
 Ab||--3-3---3-3---3-3---3-3-|--3-3---3-3---3-3---3-3-|--5-5---5-5---5-5---5-
 5-|--5-5---5-5-------|
 Eb||------------------------|------------------------|----------------------
 --|------------------|

|| . . . . . . . . . . . . . . . . . . . . . . .
. . . . . |
|| Right
|
 
 eb||------------------------|------------------------|----------------------
 --|------------------|
 Bb||------------------------|------------------------|----------------------
 --|------------------|
 Gb||------------------------|------------------------|----------------------
 --|------------------|
 Db||2-----2-----2-----2-----|2-----2-----2-----2-----|4-----4-----4-----4---
 --|4-----4-----4s2---|
 Ab||--3-3---3-3---3-3---3-3-|--3-3---3-3---3-3---3-3-|--5-5---5-5---5-5---5-
 5-|--5-5---5-5-------|
 Eb||------------------------|------------------------|----------------------
 --|------------------|

. . . . . . . . . . . . . . . . . . . . . . . . . . . . . . . . . . .
. . . . .
SHORT FILL:
[Ebm] Both
 
 eb||--------------------------------|--------------------------------|
 Bb||--------------------------------|--------------------------------|
 Gb||--------------------------------|--------------------------------|
 Db||--------------------------------|--------------------------------|
 Ab||2---2-2-2---2---2-2-2---2---2-2-|2---2---2-2-2---2---5---4---5---|
 Eb||0---0-0-0---0---0-0-0---0---0-0-|0---0---0-0-0---0---3---2---3---|

. . . . . . . . . . . . . . . . .
[Bm] Left
 
 eb||--------------------------------|--------------------------------|
 Bb||--------------------------------|--------------------------------|
 Gb||--------------------------------|--------------------------------|
 Db||5---5-5-5---5---5-5-5---5---5-5-|5---5---5-5-5---5-5-5-5-5---4---|
 Ab||3---3-3-3---3---3-3-3---3---3-3-|3---3---3-3-3---3-3-3-3---------|
 Eb||--------------------------------|--------------------------------|

||. . . . . . . . . . . . . . . . . . . . |
|| Right |
 
 eb||--------------------------------|--------------------------------|
 Bb||--------------------------------|------------------------A.H-A.H-|
 Gb||--------------------------------|------------------------4---2---|
 Db||5---5-5-5---5---5-5-5---5---5-5-|5---5---5-5-5---5-5-5-5---------|
 Ab||3---3-3-3---3---3-3-3---3---3-3-|3---3---3-3-3---3-3-3-3---------|
 Eb||--------------------------------|--------------------------------|

. . . . . . . . . . . . . . . . . . . .
[Ebm] Both
 
 eb||--------------------------------|--------------------------------|
 Bb||--------------------------------|--------------------------------|
 Gb||--------------------------------|--------------------------------|
 Db||--------------------------------|--------------------------------|
 Ab||2---2-2-2---2---2-2-2---2---2-2-|2---2---2-2-2---2---5---4---5---|
 Eb||0---0-0-0---0---0-0-0---0---0-0-|0---0---0-0-0---0---3---2---3---|

. . . . . . . . . . . . . . . . .
[Abm] Both
 
 eb||--------------------------------|------------------------------|
 Bb||--------------------------------|------------------------------|
 Gb||--------------------------------|------------------------------|
 Db||--------------------------------|------------------------------|
 Ab||7---7-7-7---7---7-7-7---7---7-7-|7---7---7-7-7---7----7----7---|
 Eb||5---5-5-5---5---5-5-5---5---5-5-|5---5---5-5-5---5----5----5---|

. . . . . . . . . . . . . . . . . . .
Verse
Bridge
Chorus
SOLO 1:
guitar 1
 
 eb||------------------------------------------------------------------------
 ----------------------------------------|
 Bb||----------13--12h13p12-10--12h13-12---10h12p10-8---7-8-10-8-7-8---7-8-10
 -8-7h8p7--------------------------------|
 Gb||9---11-12---------------------------------------------------------------
 ------------9-h11p9-8--9-11--12-11-9-11-|
 Db||------------------------------------------------------------------------
 ----------------------------------------|
 Ab||------------------------------------------------------------------------
 ----------------------------------------|
 Eb||------------------------------------------------------------------------
 ----------------------------------------|

guitar 2
 
 eb||------------------------------------------------------------------------
 -----------------------------|
 Bb||------------------------------------------------------------------------
 -----------------------------|
 Gb||------------------------------------------------------------------------
 -----------------------------|
 Db||---------------------------------------------------7-7-7--7-7-7-7-7--7-7
 -7---------------------------|
 Ab||\2-2-2--2-2-2-2-2--2-2-2--7-7-7--7-7-7-7-7--7-7-7--5-5-5--5-5-5-5-5--5-5
 -5--5-5-5--5-5-5-5-5--5-5-5--|
 Eb||\0-0-0--0-0-0-0-0--0-0-0--5-5-5--5-5-5-5-5--5-5-5-----------------------
 ----3-3-3--3-3-3-3-3--3-3-3--|

p.m . . . . . . . . . . . . . . . . . . . . . . . . . . . . . .
. . . . . . . . . .
 
 eb|-------------------------------------------------------------------------
 ----------------------------|
 Bb|-------------------------------------------------------------------------
 ----------------------------|
 Gb|-------------------------------------------------------------------------
 ----------------------------|
 Db|5-5-5--5-5-5-5-5--5-5-5--5-5-5--5-5-5-5-5--5-5-5--4-4-4--4-4-4-4-4--4-4-4
 --4-4-4--4-4-4-4-4-4--4-4-4-|
 Ab|3-3-3--3-3-3-3-3--3-3-3--4-4-4--4-4-4-4-4--4-4-4--2-2-2--2-2-2-2-2--2-2-2
 --2-2-2--2-2-2-2-2-2--2-2-2-|
 Eb|-------------------------------------------------------------------------
 ----------------------------|

. . . . . . . . . . . . . . . . . . . . . . . . . . . . . .
. . . . . . . . . . .
SOLO 2:
guitar 1:
 
 eb||19p15-------19p15-19p15-------19p15-19p15-------17p15-------17p15-------
 19p15-------19p15-------|
 Bb||------17p15-------------17p15-------------17p15-------17p15-------17p15-
 ------17p15-------17p15-|
 Gb||------------------------------------------------------------------------
 ------------------------|
 Db||------------------------------------------------------------------------
 ------------------------|
 Ab||------------------------------------------------------------------------
 ------------------------|
 Eb||------------------------------------------------------------------------
 ------------------------|
 eb||20p17----20p17-20p17----20p17-20p17----22p17----22p17----20p17----20p17-

---|
 
 Bb||------17-------------17-------------17-------17-------17-------17-------

17-|
 
 Gb||------------------------------------------------------------------------

---|
 
 Db||------------------------------------------------------------------------

---|
 
 Ab||------------------------------------------------------------------------

---|
 
 Eb||------------------------------------------------------------------------

---|
 
 eb||17p14--17p14-17p14-17p14-17p14-------15p14-------15p14-------17p14------
 -17p14-------|
 Bb||-------------------------------15p14-------15p14-------15p14-------15p14
 -------15p14-|
 Gb||------------------------------------------------------------------------
 -------------|
 Db||------------------------------------------------------------------------
 -------------|
 Ab||------------------------------------------------------------------------
 -------------|
 Eb||------------------------------------------------------------------------
 -------------|
 eb||19p15-------19p15-19p15-------19p15-19p15-------20p15-------20p15-------
 19p15-------19p15-------|
 Bb||------17p15-------------17p15-------------17p15-------17p15-------17p15-
 ------17p15-------17p15-|
 Gb||------------------------------------------------------------------------
 ------------------------|
 Db||------------------------------------------------------------------------
 ------------------------|
 Ab||------------------------------------------------------------------------
 ------------------------|
 Eb||------------------------------------------------------------------------
 ------------------------|
 eb||15p12----15p12-15p12----15p12-15p12----17p12----17p12----15p12----15p12-

----|
 
 Bb||------13-------------13-------------13-------13-------13-------13-------

13--|
 
 Gb||------------------------------------------------------------------------

----| x2
 
 Db||------------------------------------------------------------------------

----|
 
 Ab||------------------------------------------------------------------------

----|
 
 Eb||------------------------------------------------------------------------

----|
 
 eb||14p11----14p11-14p11----14p11-14p11----15p11----15p11----14p11----14p11-

---|
 
 Bb||------12-------------12-------------12-------12-------12-------12-------

12-|
 
 Gb||------------------------------------------------------------------------

---|
 
 Db||------------------------------------------------------------------------

---|
 
 Ab||------------------------------------------------------------------------

---|
 
 Eb||------------------------------------------------------------------------

---|
 
 eb||14p11----14p11-14p11----14p11-14p11----15p11----15p11-----14h15p--------
 ---------|
 Bb||------12-------------12-------------12-------12-------12---------17-----
 ---------|
 Gb||---------------------------------------------------------------------16h

17p16h17-|
 
 Db||------------------------------------------------------------------------
 ---------|
 Ab||------------------------------------------------------------------------
 ---------|
 Eb||------------------------------------------------------------------------
 ---------|

guitar 2
 
 eb||--------------------------------------|
 Bb||--------------------------------------|
 Gb||----------7---------5-------4----4----|
 Db||2----7----7----5----5---5---4----4----|
 Ab||2----7----5----5----3---4---2----2----|
 Eb||0----5---------3----------------------|

The "I'm born and I lead the weak into the fire..." section goes with the
same chord as in solo part I and II.
SOLO 3:
guitar 1
 
 eb||------------------------------------------------------------------------
 --------|
 Bb||------------------------------------------------------------------------
 --------|
 Gb||8-----------------------------------------9-8-9-11---8------------------
 --------|
 Db||--10-9-10-9-7-9-10-9-9A.H---9-10-9-7-9-10--------------10-9-10-9-7-9-10-

9-9A.H--|
 
 Ab||------------------------------------------------------------------------
 --------|
 Eb||------------------------------------------------------------------------
 --------|
 eb||------------------------------------------------------------------------
 --------|
 Bb||------------------------------------------------------------------------
 --------|
 Gb||------------------------------------------------------------------------
 --------|
 Db||7-9-10-10-10-10-10-10-9-9-9-9-9-9-7-7-7-7-10-10-10-10-10-10-9-9-9-9-9-9-

7-7-7-7-|
 
 Ab||------------------------------------------------------------------------
 --------|
 Eb||------------------------------------------------------------------------
 --------|

| just for organizing..
 
 eb||------------------------------------------------------------------------
 ---------------------|
 Bb||------------------------------------------------------------------------
 ---------------------|
 Gb||------------------------------------------------------------------------
 ------0h5p0-5p0-5p0--|
 Db||9p0-9p0-9p0|-10p0-10p0-10p0|-9p0-9p0-9p0|-10p0-10p0-10p0|-9p0-9p0|-10p0-
 10p0|----------------|
 Ab||------------------------------------------------------------------------
 ---------------------|
 Eb||------------------------------------------------------------------------
 ---------------------|
 eb||------------------------------------------------------------------------
 -------------------|
 Bb||------------------------------------------------------------------------
 -------------------|
 Gb||7p0-7p0-7p0|-9p0-9p0-9p0|-11p0-11p0-11p0|-12p0-11p0-9p0-11p0|-12---11-12
 -14---12-11-11-----|
 Db||------------------------------------------------------------------------
 -------------------|
 Ab||------------------------------------------------------------------------
 -------------------|
 Eb||------------------------------------------------------------------------
 -------------------|

guitar 2
 
 eb||----------------------------------------------------------------|
 Bb||----------------------------------------------------------------|
 Gb||----------------------------------------------------------------|
 Db||----------------------------------------------------------------|
 Ab||7--7-7-7--7-7-7--7-7-7--7-7-7--7-7-7--7-7-7--7-7-7--7-7-7--7-7--|
 Eb||5--5-5-5--5-5-5--5-5-5--5-5-5--5-5-5--5-5-5--5-5-5--5-5-5--5-5--|

. . . . . . . . . . . . . . . . . . . . . . . . . . .
 
 eb||----------------------------------------------------------------|
 Bb||----------------------------------------------------------------|
 Gb||----------------------------------------------------------------| x3
 Db||4--4-4-4--4-4-4--4-4-4--4-4-4--4-4-4--4-4-4--4-4-4--4-4-4--4-4--|
 Ab||2--2-2-2--2-2-2--2-2-2--2-2-2--2-2-2--2-2-2--2-2-2--2-2-2--2-2--|
 Eb||----------------------------------------------------------------|

. . . . . . . . . . . . . . . . . . . . . . . . . . .
 
 eb||------------|
 Bb||------------|
 Gb||------------|
 Db||5-------7---|
 Ab||3---7---5---|
 Eb||----5-------|

FILL-IN:
 
 eb||----------------------------------|
 Bb||----------------------------------|
 Gb||----------------------------------|
 Db||----------------------------------|
 Ab||9---10-10-9---7---9---7---5---4---|
 Eb||7---8--8--7---5---7---5---3---2---|

Chorus:

Important: The song above is NOT stored on the Chordie server. The original song is hosted at www.guitaretab.com. Chordie works as a search engine and provides on-the-fly formatting. Chordie does not index songs against artists'/composers' will. To remove this song please click here.

Text color:
Chord color:
Chord grids: 
Font size:    
Page size: 

Ab Abm B Bb Bm Db Ebm Ebsus2
Rate #2 of 2 versions

Jango Player

Login - add to songbook

SHARE PAGE  




You need to log in to post comments