Guitar Tabs, Chords and Lyrics
Server problems seems to be fixed. Chordie has been experiencing problems with songs disappearing. These issues now seems to be fixed, but still verifying the fix. If you find anything strange, please email admin@chordie.com.


The Kingdom  Edguy

As recorded by Edguy
(From the 1997 Album THE KINGDOM)
Transcribed by secret_sphere
Words by Tobias Sammet Music by Edguy
[G5]3 5 x x x x D5
x 5 7 x x x Eb5
x 6 8 x x x Bb5
x 1 3 x x x
[F5]1 3 x x x x Ab5
4 6 x x x x C5
x 3 5 x x x
Gtr I (E A D G B E) - 'Ac. Gtr. I'
Gtr II (E A D G B E) - 'Ac. Gtr. II'
Gtr III (E A D G B E) - 'Dist. Gtr. I'
Gtr IV (E A D G B E) - 'Dist. Gtr. II'
Gtr V (E A D G B E) - 'Keyboard'
Intro
Q=106
[Gm] [Eb/G] [Cm] [D] 
[4/4] Gtr I
[E] [E] [E] [E] [E] [E] [E] [E] [E] [E] [E] [E] [E] [E] [E] [E] [E] [E] [E] [E] [E] [E] [E] [E] [E] [E] [E] [E] [E] [E] [E] [E]  
 
 ||------3-----3-----|-------------------|-------------------|------------------|
 ||o---3-----3---3---|-------4-----4-----|-------1-----1-----|-----3-----3------|
 ||--0-----0-------3-|-----3-----3---3---|-----0-----0---0---|---2-----2---2----|
 ||------------------|--1------1-------1-|-------------------|-0-----0-------0--|
 ||o-----------------|-------------------|--3------3-------3-|------------------|
 ||------------------|-------------------|-------------------|------------------|

|
| Gtr II
| E E E H E E E E H E E E E H E E E E H E
 
 ||------------------|-------------------|-------------------|-------2----------|
 ||o-----------------|-------------------|---------4---------|-----3------------|
 ||--------3---------|---------3---------|-------5-----------|---2--------------|
 ||------5-----------|-------5-----------|-----5-------------|-0----------------|
 ||o---5-------------|-----6-------------|--3----------------|------------------|
 ||--3---------------|--3----------------|-------------------|------------------|

|
| Gtr V
| W W W W
 
 ||--6---------------|-(6)---------------|--3----------------|-5----------------|
 ||o-8---------------|--4----------------|-(4)---------------|-7----------------|
 ||------------------|-------------------|-------------------|------------------|
 ||------------------|-------------------|-------------------|------------------|
 ||o-----------------|-------------------|-------------------|------------------|
 ||------------------|-------------------|-------------------|------------------|

[Gm] [Eb/G] [Bb] 
[E] [E] [E] [E] [E] [E] [E] [E] [E] [E] [E] [E] [E] [E] [E] [E] [E] [E] [E] [E] [E] [E] [E] [E]  
 
 |-----3-----3-----|-------------------|-------------------|
 |---3-----3---3---|-------4-----4-----|-------------------|
 |-0-----0-------3-|-----3-----3---3---|-------3-----3-----|
 |-----------------|--1------1-------1-|-----3-----3---3---|
 |-----------------|-------------------|--1------1-------1-|
 |-----------------|-------------------|-------------------|

|
| E E E H E E E E H E E E E H E
 
 |-----------------|-------------------|-------------------|
 |-----------------|-------------------|---------3---------|
 |-------3---------|---------3---------|-------3-----------|
 |-----5-----------|-------5-----------|-----3-------------|
 |---5-------------|-----6-------------|--1----------------|
 |-3---------------|--3----------------|-------------------|

|
| W W W
 
 |-6---------------|-(6)---------------|-(6)---------------|
 |-8---------------|--4----------------|--6----------------|
 |-----------------|-------------------|-------------------|
 |-----------------|-------------------|-------------------|
 |-----------------|-------------------|-------------------|
 |-----------------|-------------------|-------------------|

1. 2.
[F] [D]  
[E] [E] [E] [E] [E] [E] [E] [E] [E] [E] [E] [E] [E] [E] [E] [E]  
 
 |--------------------||-------------------|
 |-------1-----1-----o||-----3-----3-------|
 |-----2-----2---2----||---2-----2---2-----|
 |---------3-------3--||-0-----0-------0---|
 |-------------------o||-------------------|
 |--1-----------------||-------------------|

|
| E E E H E E E E H E
 
 |--------------------||-------2-----------|
 |-------------------o||-----3-------------|
 |---------2----------||---2---------------|
 |--------------------||-0-----------------|
 |-----0-3-----------o||-------------------|
 |--1-----------------||-------------------|

|
| W W
 
 |--5-----------------||-5-----------------|
 |-(6)---------------o||-7-----------------|
 |--------------------||-------------------|
 |--------------------||-------------------|
 |-------------------o||-------------------|
 |--------------------||-------------------|

Verse I
[Gm] [Eb/G] [Cm] [D] 
[E] [E] [E] [E] [E] [E] [E] [E] [E] [E] [E] [E] [E] [E] [E] [E] [E] [E] [E] [E] [E] [E] [E] [E] [E] [E] [E] [E] [E] [E] [E] [E]  
 
 ||------3-----3-----|-------------------|-------------------|-----------------|
 ||o---3-----3---3---|-------4-----4-----|-------1-----1-----|-----3-----3-----|
 ||--0-----0-------3-|-----3-----3---3---|-----0-----0---0---|---2-----2---2---|
 ||------------------|--1------1-------1-|-------------------|-0-----0-------0-|
 ||o-----------------|-------------------|--3------3-------3-|-----------------|
 ||------------------|-------------------|-------------------|-----------------|

|
| E E E H E E E E H E E E E H E E E E H E
 
 ||------------------|-------------------|-------------------|-------2---------|
 ||o-----------------|-------------------|---------4---------|-----3-----------|
 ||--------3---------|---------3---------|-------5-----------|---2-------------|
 ||------5-----------|-------5-----------|-----5-------------|-0---------------|
 ||o---5-------------|-----6-------------|--3----------------|-----------------|
 ||--3---------------|--3----------------|-------------------|-----------------|

|
| W W W W
 
 ||--6---------------|-(6)---------------|--3----------------|-5---------------|
 ||o-8---------------|--4----------------|-(4)---------------|-7---------------|
 ||------------------|-------------------|-------------------|-----------------|
 ||------------------|-------------------|-------------------|-----------------|
 ||o-----------------|-------------------|-------------------|-----------------|
 ||------------------|-------------------|-------------------|-----------------|

[Gm] [Eb/G] [Bb] 
[E] [E] [E] [E] [E] [E] [E] [E] [E] [E] [E] [E] [E] [E] [E] [E] [E] [E] [E] [E] [E] [E] [E] [E]  
 
 |-----3-----3-----|-------------------|-------------------|
 |---3-----3---3---|-------4-----4-----|-------------------|
 |-0-----0-------3-|-----3-----3---3---|-------3-----3-----|
 |-----------------|--1------1-------1-|-----3-----3---3---|
 |-----------------|-------------------|--1------1-------1-|
 |-----------------|-------------------|-------------------|

|
| E E E H E E E E H E E E E H E
 
 |-----------------|-------------------|-------------------|
 |-----------------|-------------------|---------3---------|
 |-------3---------|---------3---------|-------3-----------|
 |-----5-----------|-------5-----------|-----3-------------|
 |---5-------------|-----6-------------|--1----------------|
 |-3---------------|--3----------------|-------------------|

|
| W W W
 
 |-6---------------|-(6)---------------|-(6)---------------|
 |-8---------------|--4----------------|--6----------------|
 |-----------------|-------------------|-------------------|
 |-----------------|-------------------|-------------------|
 |-----------------|-------------------|-------------------|
 |-----------------|-------------------|-------------------|

1. 2.
[F] [D]  
[E] [E] [E] [E] [E] [E] [E] [E] [E] [E] [E] [E] [E] [E] [E] [E]  
 
 |--------------------||-------------------|
 |-------1-----1-----o||-----3-----3-------|
 |-----2-----2---2----||---2-----2---2-----|
 |---------3-------3--||-0-----0-------0---|
 |-------------------o||-------------------|
 |--1-----------------||-------------------|

|
| E E E H E E E E H E
 
 |--------------------||-------2-----------|
 |-------------------o||-----3-------------|
 |---------2----------||---2---------------|
 |--------------------||-0-----------------|
 |-----0-3-----------o||-------------------|
 |--1-----------------||-------------------|

|
| W W
 
 |--5-----------------||-5-----------------|
 |-(6)---------------o||-7-----------------|
 |--------------------||-------------------|
 |--------------------||-------------------|
 |-------------------o||-------------------|
 |--------------------||-------------------|

1.
[Eb] [F] [Gm] 
[E] [E] [E] [E] [E] [E] [E] [E] [E] [E] [E] [E] [E] [E] [E] [E] [E] [E] [E] [E] [E] [E] [E] [E]  
 
 ||------------------|-------1------1-----|-----3-----3-----|
 ||o-----4-----4-----|----1-------1---1---|---3-----3---3---|
 ||----3-----3---3---|--------------------|-0-----0-------3-|
 ||--1-----1-------1-|-3--------3-------3-|-----------------|
 ||o-----------------|--------------------|-----------------|
 ||------------------|--------------------|-----------------|

|
| E E E H E E E E H E E E E H E
 
 ||------------------|--------------------|-----------------|
 ||o-------8---------|---------10---------|-----------------|
 ||------8-----------|------10------------|-------3---------|
 ||----8-------------|---10---------------|-----5-----------|
 ||o-6---------------|-8------------------|---5-------------|
 ||------------------|--------------------|-3---------------|

|
| W W W
 
 ||--6---------------|-5------------------|-6---------------|
 ||o-4---------------|-6------------------|-8---------------|
 ||------------------|--------------------|-----------------|
 ||------------------|--------------------|-----------------|
 ||o-----------------|--------------------|-----------------|
 ||------------------|--------------------|-----------------|

2.
[D5]Gtr III
PM|
E E E E E E E E E e E E E E E E E E E E E E E E
 
 |--3------3-----3----||-----------------|-------------------|
 |-----3-----3-----3-o||-----------------|-------------------|
 |-------0-----0------||-----------------|-------------------|
 |--------------------||-7---------7-7-7-|--7--7-7-7-7-7-7-7-|
 |-------------------o||-5-5-5-5-5-5-5-5-|--5--5-5-5-5-5-5-5-|
 |--------------------||-----------------|-------------------|

|
| Gtr IV
| PM|
| E E E H E E E E E E E E E E E E E E E E E
 
 |--------------------||-----------------|-------------------|
 |-------------------o||-----------------|-------------------|
 |---------3----------||-----------------|-------------------|
 |-------5------------||-7-------7-7-7-7-|--7--7-7-7-7-7-7-7-|
 |-----5-------------o||-5-5-5-5-5-5-5-5-|--5--5-5-5-5-5-5-5-|
 |--3-----------------||-----------------|-------------------|

|
| +W W +W
 
 |-(6)----------------||-5---------------|-(5)---------------|
 |-(8)---------------o||-7---------------|-(7)---------------|
 |--------------------||-----------------|-------------------|
 |--------------------||-----------------|-------------------|
 |-------------------o||-----------------|-------------------|
 |--------------------||-----------------|-------------------|

Main Riff
[G5]Gtrs III[D5], IV[Eb5] [G5] [Bb5] [F5]
PM| PM|
E S S e Q e Q +W E S S e Q e Q +W
 
 ||---------------------|------------|------------------|---------||
 ||o--------------------|------------|------------------|--------o||
 ||---------------------|------------|------------------|---------||
 ||----------7-----8-8--|-(8)--------|---------3--------|---------||
 ||o-5-----5-5-----6-6--|-(6)--------|-5-----5-1---3-3--|-(3)----o||
 ||--3-3-3-3------------|------------|-3-3-3-3-----1-1--|-(1)-----||

|
| Gtr V
| H Q Q +W H Q Q +W
 
 ||--6---------(6)---6--|-(6)--------|-6---------5---5--|-(5)-----||
 ||o-8----------6----4--|-(4)--------|-8---------3---6--|-(6)----o||
 ||---------------------|------------|------------------|---------||
 ||---------------------|------------|------------------|---------||
 ||o--------------------|------------|------------------|--------o||
 ||---------------------|------------|------------------|---------||

[G5]Gtr III[D5] [Eb5] [G5] [Bb5] [F5]
PM| PM|
E S S e E. +S e Q +W E S S e Q E Q +W
 
 ||----------------------------|------------|-------------------|---------||
 ||o---------------------------|------------|-------------------|--------o||
 ||-----------------------(3)--|-(3)--------|---------/7---5-5--|-(5)-----||
 ||----------3------(3)s5--5---|-(5)--------|-------------------|---------||
 ||o-5-----5-------------------|------------|-5-----5-----------|--------o||
 ||--3-3-3-3-------------------|------------|-3-3-3-3-----------|---------||

|
| Gtr IV
| PM| PM|
| E S S e Q e Q +W E S S e Q e Q +W
 
 ||----------------------------|------------|-------------------|---------||
 ||o---------------------------|------------|-------------------|--------o||
 ||----------------------------|------------|-------------------|---------||
 ||----------7----------8--8---|-(8)--------|----------3--------|---------||
 ||o-5-----5-5----------6--6---|-(6)--------|-5-----5--1---3-3--|-(3)----o||
 ||--3-3-3-3-------------------|------------|-3-3-3-3------1-1--|-(1)-----||

|
| Gtr V
| H Q Q +W H Q Q +W
 
 ||--6----------(6)--------6---|-(6)--------|-6----------5---5--|-(5)-----||
 ||o-8-----------6---------4---|-(4)--------|-8----------3---6--|-(6)----o||
 ||----------------------------|------------|-------------------|---------||
 ||----------------------------|------------|-------------------|---------||
 ||o---------------------------|------------|-------------------|--------o||
 ||----------------------------|------------|-------------------|---------||

[G5] PM|[D5] [Eb5]
E S S e E. +S e Q +W
 
 |---------------------------|------------|
 |---------------------------|------------|
 |----------------------(3)--|-(3)--------|
 |---------3------(3)s5--5---|-(5)--------|
 |-5-----5-------------------|------------|
 |-3-3-3-3-------------------|------------|

|
| PM--|
| E S S E Q E Q +W
 
 |---------------------------|------------|
 |---------------------------|------------|
 |---------------------------|------------|
 |---------7----------8--8---|-(8)--------|
 |-5-----5-5----------6--6---|-(6)--------|
 |-3-3-3-3-------------------|------------|

|
| H Q Q +W
 
 |-6----------(6)--------6---|-(6)--------|
 |-8-----------6---------4---|-(4)--------|
 |---------------------------|------------|
 |---------------------------|------------|
 |---------------------------|------------|
 |---------------------------|------------|

[G5] PM|[Bb5] [F5]
E S S e Q E E. S S S S S S S S S S S S S S S S S
 
 |---------------------|-----------------------------------|
 |---------------------|-----------------------------------|
 |---------/7---5-5--5-|--5--3-2-3-2---2-------2-3-5-3-2---|
 |---------------------|-------------5---5-3-5-----------3-|
 |-5-----5-------------|-----------------------------------|
 |-3-3-3-3-------------|-----------------------------------|

|
| PM|
| E S S E Q E Q +W
 
 |---------------------|-----------------------------------|
 |---------------------|-----------------------------------|
 |---------------------|-----------------------------------|
 |----------3----------|-----------------------------------|
 |-5-----5--1---3-3----|-(3)-------------------------------|
 |-3-3-3-3------1-1----|-(1)-------------------------------|

|
| H Q Q +W
 
 |-6----------5---5----|-(5)-------------------------------|
 |-8----------3---6----|-(6)-------------------------------|
 |---------------------|-----------------------------------|
 |---------------------|-----------------------------------|
 |---------------------|-----------------------------------|
 |---------------------|-----------------------------------|

[G5] [D5] [Eb5] [G5] PM|[Bb5] [F5]
Q. E. S e Q +W E S S e Q E Q H. Q
 
 |--------------------------|------------|-------------------|-------------|
 |--------------------------|------------|-------------------|-------------|
 |-----------------------3--|-(3)--------|---------/7---5-5--|-------------|
 |-5--------3------(3)s5-5--|-(5)--------|-------------------|-------------|
 |----------5-------5-------|------------|-5-----5-----------|-10\---------|
 |--------------------------|------------|-3-3-3-3-----------|-------------|

|
| PM--| PM|
| E S S E Q E Q +W E S S E Q E Q +W
 
 |--------------------------|------------|-------------------|-------------|
 |--------------------------|------------|-------------------|-------------|
 |--------------------------|------------|-------------------|-------------|
 |----------7----------8-8--|-(8)--------|----------3--------|-------------|
 |-5------5-5----------6-6--|-(6)--------|-5-----5--1---3-3--|-(3)---------|
 |-3--3-3-3-----------------|------------|-3-3-3-3------1-1--|-(1)---------|

|
| H Q Q +W H Q Q +W
 
 |-6-----------(6)-------6--|-(6)--------|-6----------5---5--|-(5)---------|
 |-8------------6--------4--|-(4)--------|-8----------3---6--|-(6)---------|
 |--------------------------|------------|-------------------|-------------|
 |--------------------------|------------|-------------------|-------------|
 |--------------------------|------------|-------------------|-------------|
 |--------------------------|------------|-------------------|-------------|

Guitar Solo I
[G5]Gtr [G]IV[G5D5] [Eb5] [G5] [G] [G5] [Bb5] [F5]
E S S E Q E Q +W E S S E Q E Q
| | | | | | | | | | | | | | |
/ o / / / / / / / o / / / / /
~~~~~~~~~~~~~~~~~~~~~~TP~
W W Q +E E. +S E Q
 
 |----------------------|------------|-13b15-----(13)-13b15r==(13)----13b15===|
 |-/15------------------|-15---------|-----------------------------15---------|
 |----------------------|------------|----------------------------------------|
 |----------------------|------------|----------------------------------------|
 |----------------------|------------|----------------------------------------|
 |----------------------|------------|----------------------------------------|

|
| Gtr V
| H Q Q +W H Q Q
 
 |---6---------(6)---6--|-(6)--------|--6-------------------5----------5------|
 |---8----------6----4--|-(4)--------|--8-------------------3----------6------|
 |----------------------|------------|----------------------------------------|
 |----------------------|------------|----------------------------------------|
 |----------------------|------------|----------------------------------------|
 |----------------------|------------|----------------------------------------|

+W
|
[/]  
+Q. +S a S S S S S S S S S
 
 |-(13)---(13)r(13)------------------------------|
 |------------------15h16-15-13h15-13-11h13-11---|
 |-----------------------------------------------|
 |-----------------------------------------------|
 |-----------------------------------------------|
 |-----------------------------------------------|

|
| +W
 
 |--(5)------------------------------------------|
 |--(6)------------------------------------------|
 |-----------------------------------------------|
 |-----------------------------------------------|
 |-----------------------------------------------|
 |-----------------------------------------------|

[G5]Gtr I[G]V[G5D5] [Eb5]
E S S E Q E Q +W
| | | | | | | |
/ o / / / / / /
~~~~
Q. E E E Q S S S E. S S S E. S S S +S
 
 |-------------------------13b15r=|=====13-------------13-------------13----------|
 |-/15--------13b15r13------------|-15-----15-13b15r15----15-13b15r15----15-(15)\-|
 |----------------------15--------|-----------------------------------------------|
 |--------------------------------|-----------------------------------------------|
 |--------------------------------|-----------------------------------------------|
 |--------------------------------|-----------------------------------------------|

|
| H Q Q +W
 
 |---6--------------(6)-----6-----|-(6)-------------------------------------------|
 |---8---------------6------4-----|-(4)-------------------------------------------|
 |--------------------------------|-----------------------------------------------|
 |--------------------------------|-----------------------------------------------|
 |--------------------------------|-----------------------------------------------|
 |--------------------------------|-----------------------------------------------|

[G5] E S S [G5Bb5]E Q [F5] E Q +W
| | | | | | | |
/ o / / / / / /
H E E Q +E E E E T T S E E E a
 
 |-18b20r========18-15-/15--|-(15)-15-17-18-17h18p17-15------------|
 |--------------------------|---------------------------18-15-18---|
 |--------------------------|--------------------------------------|
 |--------------------------|--------------------------------------|
 |--------------------------|--------------------------------------|
 |--------------------------|--------------------------------------|

|
| H Q Q +W
 
 |--6-------------5------5--|--(5)---------------------------------|
 |--8-------------3------6--|--(6)---------------------------------|
 |--------------------------|--------------------------------------|
 |--------------------------|--------------------------------------|
 |--------------------------|--------------------------------------|
 |--------------------------|--------------------------------------|

H=H
$
[G5] E e E E E E E E E E E E E Q.
| | | | | | | | | | | | |
/ o / / / / / / / / / / /
+E +E +H. +H H
 
 |-----------------------------|-------------------|
 |-(18)b20-(18)-(18)-----------|-(18)--------------|
 |-----------------------------|-------------------|
 |-----------------------------|-------------------|
 |-----------------------------|-------------------|
 |-----------------------------|-------------------|

Verses II & III
Slightly Faster Q=112 1. 2.
[Cm] W [Ab/C] W [Bb]W [G5] W [G5] H E E E E
 
 ||------------|------------|----------|-------------||--------------------|
 ||o-----------|------------|----------|------------o||--------------------|
 ||------------|------------|----------|-------------||--------------------|
 ||------------|------------|----------|-------------||--------------------|
 ||o-----------|------------|----------|------------o||--------------------|
 ||------------|------------|----------|-------------||----------xsx\-15\--|

|
| Gtr V
| W W W W W
 
 ||---8--------|-(8)--------|-6--------|-------------||--------------------|
 ||o--8--------|--9---------|-6--------|--8---------o||--8-----------------|
 ||---8--------|-(8)--------|-7--------|-(7)---------||-(7)----------------|
 ||--10--------|--6---------|-8--------|--5----------||--5-----------------|
 ||o-----------|------------|----------|------------o||--------------------|
 ||------------|------------|----------|-------------||--------------------|

[Cm]Gtrs III, IV[Ab]
 
 PM| PM| PM| PM| PM| PM------| PM| PM| PM| PM| PM

S S S S S S S S S S S S S S S S S S S S S S S S S S S S S S S S
 
 ||-----------------------------------|-----------------------------------|
 ||o----------------------------------|-----------------------------------|
 ||-----------------------------------|-----------------------------------|
 ||-------5-----5-----5-----5-----5---|-----------------------------------|
 ||o--3-3-3-3-3-3-3-3-3-3-3-3-3-3-3-3-|-------6-----6-----6-----6-----6---|
 ||-----------------------------------|--4--4-4-4-4-4-4-4-4-4-4-4-4-4-4-4-|

|
| W W
 
 ||---8-------------------------------|-(8)-------------------------------|
 ||o--8-------------------------------|--9--------------------------------|
 ||---8-------------------------------|-(8)-------------------------------|
 ||--10-------------------------------|--6--------------------------------|
 ||o----------------------------------|-----------------------------------|
 ||-----------------------------------|-----------------------------------|

[Bb] [G5]  
 
 PM| PM| PM| PM| PM| PM------| PM| PM|

S S S S S S S S S S S S S S S S S S S S S S S S a S S S S S S S S
 
 |---------------------------------|--------------------------------------||
 |---------------------------------|-------------------------------------o||
 |---------------------------------|--------------------------------------||
 |---------------------------------|-------------------3h5-3---3----------||
 |-----8-----8-----8-----8-----8---|-------5-----5-----------6---6-5-3---o||
 |-6-6-6-6-6-6-6-6-6-6-6-6-6-6-6-6-|--3--3-3-3-3-3-3-3-----------------6--||

|
| W W
 
 |-6-------------------------------|--------------------------------------||
 |-6-------------------------------|--8----------------------------------o||
 |-7-------------------------------|-(7)----------------------------------||
 |-8-------------------------------|--5-----------------------------------||
 |---------------------------------|-------------------------------------o||
 |---------------------------------|--------------------------------------||

Pre-Chorus
[Eb5]Gtr IV
W W
| |
[/] [/] 
Gtr III
 
 PM---------------------------------------------------------------------

S S S S S S S S S S S S S S S S S S S S S S S S S S S S S S S S
 
 ||-------------------------------------|-----------------------------------|
 ||o------------------------------------|-----------------------------------|
 ||-------------------------------------|-----------------------------------|
 ||-------------------------------------|-----------------------------------|
 ||o--6-6-6-6-6-6-6-6--6-6-6-6--6-6-6-6-|--6-6-6-6-6-6-6-6--6-6-6-6-6-6-6-6-|
 ||-------------------------------------|-----------------------------------|

|
| H Q Q H H
 
 ||--11---------------15-------18-------|-11---------------15---------------|
 ||o-11---------------------------------|-11--------------------------------|
 ||-------------------------------------|-----------------------------------|
 ||-------------------------------------|-----------------------------------|
 ||o------------------------------------|-----------------------------------|
 ||-------------------------------------|-----------------------------------|

W W
[G5] W
|
[/]  
 
 ----------------------------------------------|

S S S S S S S S S S S S S S S S
 
 |---------------------------------------------------|
 |---------------------------------------------------|
 |---------------------------------------------------|
 |---------------------------------------------------|
 |-10-10-10-10-10-10-10-10-10-10-10-10-10-10-10-10---|
 |---------------------------------------------------|

|
| W
 
 |-15------------------------------------------------|
 |-15------------------------------------------------|
 |---------------------------------------------------|
 |---------------------------------------------------|
 |---------------------------------------------------|
 |---------------------------------------------------|

W
W
|
[/]  
 
 PM-----------------------------------------------

S S S S S S S S S S S S S S S S
 
 |---------------------------------------------------|
 |---------------------------------------------------|
 |---------------------------------------------------|
 |---------------------------------------------------|
 |--10--10-10-10-10-10-10-10-10-10-10-10-10-10-10-10-|
 |---------------------------------------------------|

|
| +H Q Q
 
 |-(15)----------------------16----------18----------|
 |--15-----------------------------------------------|
 |---------------------------------------------------|
 |---------------------------------------------------|
 |---------------------------------------------------|
 |---------------------------------------------------|

W
[Ab5] W W
| |
[/] [/] 
 
 ------------------------------------------------------------------------|

S S S S S S S S S S S S S S S S S S S S S S S S S S S S S S S S
 
 |----------------------------------|------------------------------------------|
 |----------------------------------|------------------------------------------|
 |----------------------------------|------------------------------------------|
 |----------------------------------|------------------------------------------|
 |----------------------------------|------------------------------------------|
 |--4-4-4-4-4-4-4-4-4-4-4-4-4-4-4-4-|---4--4-4-4-4-4--4--4-4-4-4-4--4-4-4-4----|

|
| W +Q. Q. Q
 
 |-16-------------------------------|-(16)-----------15------------13----------|
 |-16-------------------------------|--16--------------------------------------|
 |----------------------------------|------------------------------------------|
 |----------------------------------|------------------------------------------|
 |----------------------------------|------------------------------------------|
 |----------------------------------|------------------------------------------|

W
[Eb5] W
|
[/]  
 
 PM-------------------------------

S S S S S S S S S S S S S S S S
 
 |----------------------------------|
 |----------------------------------|
 |----------------------------------|
 |----------------------------------|
 |--6-6-6-6-6-6-6-6-6-6-6-6-6-6-6-6-|
 |----------------------------------|

|
| W
 
 |-15-------------------------------|
 |-16-------------------------------|
 |----------------------------------|
 |----------------------------------|
 |----------------------------------|
 |----------------------------------|

H.=H
[Bb5] W [(Ab5)]W[(Bb)]
|
[/]  
 
 --------------------------------|

S S S S S S S S S S S S S S S S E E E E a E E E E
 
 |------------------------------------||----------------------|
 |-----------------------------------o||--------6-6s=8-6------|
 |------------------------------------||-5--7-8----------8--7-|
 |------------------------------------||----------------------|
 |-----------------------------------o||----------------------|
 |--6-6-6-6-6-6-6-6-6-6-6-6-6-6-6-6/--||----------------------|

|
| Gtr IV
| W E E E E a E E E E
 
 |-13---------------------------------||----------------------|
 |-15--------------------------------o||------8-9-9s11-9-8----|
 |------------------------------------||-8-10--------------10-|
 |------------------------------------||----------------------|
 |-----------------------------------o||----------------------|
 |------------------------------------||----------------------|

Chorus
Slower Q=106
[Eb5]Gtrs III, IV
PM|
H. +E S S H Q Q
 
 ||-------------------|---------------|
 ||o------------------|---------------|
 ||---8---------------|---------------|
 ||---8-------(8)-----|---8-----------|
 ||o--6-------(6)-6-6-|---6-----6--8--|
 ||-------------------|---------------|

|
| Gtr V
| W +W
 
 ||--18---------------|-(18)----------|
 ||o-16---------------|-(16)----------|
 ||-------------------|---------------|
 ||-------------------|---------------|
 ||o------------------|---------------|
 ||-------------------|---------------|

[Bb5] PM| [F5] PM|
H. +E S S W H. +E S S
 
 |------------------|-------------|-------------------|
 |------------------|-------------|-------------------|
 |------------------|-------------|-------------------|
 |------------------|-------------|-------------------|
 |--8-------(8)-----|---8---------|--3-------(3)------|
 |--6-------(6)-6-6-|---6---------|--1-------(1)-1-1--|

|
| W +W W
 
 |-13---------------|-(13)--------|-16----------------|
 |-15---------------|-(15)--------|-13----------------|
 |------------------|-------------|-------------------|
 |------------------|-------------|-------------------|
 |------------------|-------------|-------------------|
 |------------------|-------------|-------------------|

1.
[F5] [Bb5] PM|
W H. +E S S
 
 |-------------|------------------|
 |-------------|------------------|
 |-------------|------------------|
 |-------------|------------------|
 |---3---------|--8-------(8)-----|
 |---1---------|--6-------(6)-6-6-|

|
| +W W
 
 |-(16)--------|-13---------------|
 |-(13)--------|-15---------------|
 |-------------|------------------|
 |-------------|------------------|
 |-------------|------------------|
 |-------------|------------------|

2. H.=H
To Coda
H [Ab5] Q [Bb5] Q [Bb5] W [Eb5] H [F5] E Q.
 
 |------------------||-----------|-----------------|
 |-----------------o||-----------|-----------------|
 |------------------||-----------|-----------------|
 |------------------||-----------|--8----10--------|
 |---8------6---8--o||--8--------|--6-----8--------|
 |---6------4---6---||--6--------|-----------------|

|
| +H Q Q W H q Q
 
 |-(13)----16--18---||-13--------|-15----16--------|
 |-(15)------------o||-15--------|-16----18--------|
 |------------------||-----------|-----------------|
 |------------------||-----------|-----------------|
 |-----------------o||-----------|-----------------|
 |------------------||-----------|-----------------|

+W
Main Riff
[G5]Gtrs III[D5], IV[Eb5] [G5] [Bb5] [F5]
E S S e Q e Q +W E S S e Q e Q +W
 
 ||---------------------|------------|------------------|---------||
 ||o--------------------|------------|------------------|--------o||
 ||---------------------|------------|------------------|---------||
 ||----------7-----8-8--|-(8)--------|---------3--------|---------||
 ||o-5-----5-5-----6-6--|-(6)--------|-5-----5-1---3-3--|-(3)----o||
 ||--3-3-3-3------------|------------|-3-3-3-3-----1-1--|-(1)-----||

|
| Gtr V
| H Q Q +W H Q Q +W
 
 ||--6---------(6)---6--|-(6)--------|-6---------5---5--|-(5)-----||
 ||o-8----------6----4--|-(4)--------|-8---------3---6--|-(6)----o||
 ||---------------------|------------|------------------|---------||
 ||---------------------|------------|------------------|---------||
 ||o--------------------|------------|------------------|--------o||
 ||---------------------|------------|------------------|---------||

[G5]Gtr III[D5] [Eb5] [G5] [Bb5] [F5]
PM| PM|
E S S e E. +S e Q +W E S S e Q E E.. T
 
 |---------------------------|------------|----------------------|
 |---------------------------|------------|----------------------|
 |----------------------(3)--|-(3)--------|---------/7---5-5---3-|
 |---------3------(3)s5--5---|-(5)--------|----------------------|
 |-5-----5-------------------|------------|-5-----5--------------|
 |-3-3-3-3-------------------|------------|-3-3-3-3--------------|

|
| Gtr IV
| PM--| PM|
| E S S E Q E Q +W E S S E Q E Q
 
 |---------------------------|------------|----------------------|
 |---------------------------|------------|----------------------|
 |---------------------------|------------|----------------------|
 |---------7----------8--8---|-(8)--------|----------3-----------|
 |-5-----5-5----------6--6---|-(6)--------|-5-----5--1---3-3-----|
 |-3-3-3-3-------------------|------------|-3-3-3-3------1-1-----|

|
| Gtr V
| H Q Q +W H Q Q
 
 |-6----------(6)--------6---|-(6)--------|-6----------5---5-----|
 |-8-----------6---------4---|-(4)--------|-8----------3---6-----|
 |---------------------------|------------|----------------------|
 |---------------------------|------------|----------------------|
 |---------------------------|------------|----------------------|
 |---------------------------|------------|----------------------|

a S S S S S S S S S S S S S S S S
 
 |------------------------------------------|
 |------------------------------------------|
 |-(3)h=5--3-2-3-2---2-------2-3-5-3-2------|
 |-----------------5---5-3-5-----------3----|
 |------------------------------------------|
 |------------------------------------------|

|
| +W
 
 |------------------------------------------|
 |------------------------------------------|
 |------------------------------------------|
 |------------------------------------------|
 |-----(3)----------------------------------|
 |-----(1)----------------------------------|

|
| +W
 
 |-----(5)----------------------------------|
 |-----(6)----------------------------------|
 |------------------------------------------|
 |------------------------------------------|
 |------------------------------------------|
 |------------------------------------------|

D.S. al Coda
[G5] [D5] [Eb5] [G5] [Bb5] [F5] >
PM|
Q. E. S e Q +W E S S e Q E Q +H. Q
 
 |----------------------------|------------|-------------------|-------------|
 |----------------------------|------------|-------------------|-------------|
 |------------------------3---|-(3)--------|---------/7---5-5--|-(5)---------|
 |-5--------3------(3)s5-(5)--|-(5)--------|-------------------|-------------|
 |----------5-------5---------|------------|-5-----5-----------|-------------|
 |----------------------------|------------|-3-3-3-3-----------|-------------|

|
| PM--| PM|
| E S S E Q E Q +W E S S E Q E Q +W
 
 |----------------------------|------------|-------------------|-------------|
 |----------------------------|------------|-------------------|-------------|
 |----------------------------|------------|-------------------|-------------|
 |----------7----------8--8---|-(8)--------|----------3--------|-------------|
 |-5------5-5----------6--6---|-(6)--------|-5-----5--1---3-3--|-(3)---------|
 |-3--3-3-3-------------------|------------|-3-3-3-3------1-1--|-(1)---------|

|
| H Q Q +W H Q Q +W
 
 |-6-----------(6)--------6---|-(6)--------|-6----------5---5--|-(5)---------|
 |-8------------6---------4---|-(4)--------|-8----------3---6--|-(6)---------|
 |----------------------------|------------|-------------------|-------------|
 |----------------------------|------------|-------------------|-------------|
 |----------------------------|------------|-------------------|-------------|
 |----------------------------|------------|-------------------|-------------|

Guitar Solo II
Q=110
&
[Bb5]Gtr IV[C5]
q H. W
| |
[/] [/]  
Gtr III
|-5-|
q H E.. T +Q +E +E T T S S S S S S S T
 
 |----------------------|---------------------------------------|
 |----------------------|-----------------8h9-8----8------------|
 |---------------10b12==|=(10)--(10)r(10)-------10---10-8-7h8p7-|
 |----------------------|---------------------------------------|
 |--8-------------------|---------------------------------------|
 |--6-------------------|---------------------------------------|

|
| Gtr V
| q H. W
 
 |-13-------------------|---------------------------------------|
 |-15-------------------|---------------------------------------|
 |----------------------|---------------------------------------|
 |----------------------|---------------------------------------|
 |----------------------|---------------------------------------|
 |----------------------|---------------------------------------|

[G5] W [Eb5]W [G5]W
| | |
[/] [/] [/] 
~~ ~ ~
Q S S S S Q S S S S Q. S S E +T E. T +E Q S S S S H
 
 |--------------------------|-----------------------------|-----------------|
 |--------------------------|-----------------------------|-----------------|
 |-----7h8p7------------7-8-|-7----7-8-10-(10)-8----------|-7--7-8-7-5-7----|
 |-10--------8-----8-10-----|---------------------10-(10)-|-----------------|
 |-------------10-----------|-----------------------------|-----------------|
 |--------------------------|-----------------------------|-----------------|

|
| W W W
 
 |--------------------------|-----------------------------|-----------------|
 |--------------------------|-----------------------------|-----------------|
 |--------------------------|-----------------------------|-----------------|
 |--------------------------|-----------------------------|-----------------|
 |--------------------------|-----------------------------|-----------------|
 |--------------------------|-----------------------------|-----------------|

[C5]W [G5]W
| |
[/] [/] 
~ ~~~
 
 |-3--| |-3--| |-3--| |-3--| |--3--| |---3----| |--3--| |--3--|

Q Q a S S S S S S S S S S S S S S S S a S S S S S S S S Q. S.. X
 
 |--------------------------------------|-8-10----8-10-10-11-8-10-11-8-10-11-10----8-----|
 |-------------------------------8-9-11-|------11----------------------------------------|
 |------------------------7-8-10--------|------------------------------------------------|
 |-----------------6-8-10---------------|------------------------------------------------|
 |--------6-6-8-10----------------------|------------------------------------------------|
 |-8--10--------------------------------|------------------------------------------------|

[Eb5] W [G5] W
| |
[/] [/]  
~~~~~
 
 |------3------|

H Q +E E S +Q.. +Q H
 
 |-10b11----10b11===(10)r8-|-------------------------|
 |-------------------------|-11-(11)b13===(11)r11----|
 |-------------------------|-------------------------|
 |-------------------------|-------------------------|
 |-------------------------|-------------------------|
 |-------------------------|-------------------------|

[C5] W [G5] W [Eb5] W
| | |
[/] [/] [/] 
~~~ ~~
H a E. E. E H a E. E. E Q.. +S E. E. E
 
 |---------------------|--------------------|-----------------------------|
 |---------------------|--------------------|-11b13====(11)r11b13-11------|
 |-/12----9s12--13--12-|-----------------12-|-------------------------13--|
 |---------------------|-13----9s12--13-----|-----------------------------|
 |---------------------|--------------------|-----------------------------|
 |---------------------|--------------------|-----------------------------|

[G5] W [C5] W
| |
[/] [/]  
~~~~
Q S S S S Q.. S H.. S S
 
 |--------------------------|-/15---------13-15---|
 |--------------------------|---------------------|
 |-12--12-13-12-10-12-------|---------------------|
 |--------------------------|---------------------|
 |--------------------------|---------------------|
 |--------------------------|---------------------|

[G5] W [Eb5] W
| |
[/] [/] 
|-5:2-|
Q +E S S Q. S. E S. Q.. S Q +E E
 
 |-15b16===(15)r15-13-15----13h15p13--|-------------------------|
 |------------------------------------|-16-------16b18r=(16)-15-|
 |------------------------------------|-------------------------|
 |------------------------------------|-------------------------|
 |------------------------------------|-------------------------|
 |------------------------------------|-------------------------|

H.=H
[G5] W [C5] W W W
| |
[/] [/]  
>
Q. E Q +E E W W +W
 
 |-------------------------|-----------|-------------|---------|
 |-13-------13b15r=(13)----|-13--------|-(13)--------|-(13)----|
 |-------12-------------12-|-----------|-------------|---------|
 |-------------------------|-----------|-------------|---------|
 |-------------------------|-----------|--(3)--------|--(3)----|
 |-------------------------|-----------|-------------|---------|

Interlude
Wx25
 
 |---------|
 |---------|
 |---------|
 |---------|
 |---------|
 |---------|

Q=135
N.C.
E E E E E E E E 6x E E E E E E E E
 
 ||-------------------||-||-------------------||
 ||o-------6---------o||-||o-----------------o||
 ||--8-7-8---8-7-5----||-||--------5-7-5------||
 ||----------------8--||-||--8-7-8-------8-7--||
 ||o-----------------o||-||o-----------------o||
 ||-------------------||-||-------------------||

|
| Gtr IV
| E E E E E E E E 6x E E E E E E E E
 
 ||-------------------||-||-------------------||
 ||o-8-6-8-9-8-6-----o||-||o---------6-------o||
 ||--------------8-7--||-||--7-5-7-8---8-7-5--||
 ||-------------------||-||-------------------||
 ||o-----------------o||-||o-----------------o||
 ||-------------------||-||-------------------||
 PM----------------------------|

S S S S S S S S S S S S S S S S 6x
 
 |-||------------------------------------||
 |-||o-------------6-6------------------o||
 |-||--8-8-7-7-8-8-----8-8-7-7-5-5-------||
 |-||------------------------------8-8---||
 |-||o----------------------------------o||
 |-||------------------------------------||

|
 
 | PM----------------------------|

| S S S S S S S S S S S S S S S S 6x
 
 |-||------------------------------------||
 |-||o-8-8-6-6-8-8-9-9-8-8-6-6----------o||
 |-||--------------------------8-8-7-7---||
 |-||------------------------------------||
 |-||o----------------------------------o||
 |-||------------------------------------||

N.C. C5
>
 
 PM----------------------------|

S S S S S S S S S S S S S S S S W +W
 
 ||-------------------------------------||-||-------------|----------||
 ||o-----------------------------------o||-||o------------|---------o||
 ||--------------5-5-7-7-5-5------------||-||---8---------|--(8)-----||
 ||--8-8-7-7-8-8-------------8-8-7-7----||-||-------------|----------||
 ||o-----------------------------------o||-||o------------|---------o||
 ||-------------------------------------||-||-------------|----------||

|
| >
 
 | PM----------------------------|

| S S S S S S S S S S S S S S S S a W +W
 
 ||-------------------------------------||-||-------------|----------||
 ||o-----------------6-6-------------8-o||-||o-(8)--------|--(8)----o||
 ||--7-7-5-5-7-7-8-8-----8-8-7-7-5-5----||-||-------------|----------||
 ||-------------------------------------||-||-------------|----------||
 ||o-----------------------------------o||-||o-10---------|-(10)----o||
 ||-------------------------------------||-||---8---------|--(8)-----||

Drum Fill
[C5]Gtr IV<br /

Important: The song above is NOT stored on the Chordie server. The original song is hosted at www.guitaretab.com. Chordie works as a search engine and provides on-the-fly formatting. Chordie does not index songs against artists'/composers' will. To remove this song please click here.

Text color:
Chord color:
Chord grids: 
Font size:    
Page size: 

Ab Ab/C Ab5 Bb Bb5 C5 Cm D D5 E Eb Eb/G Eb5 F F5 G G5 Gm
Rate #1 of 4 versions

Jango Player

Login - add to songbook

SHARE PAGE  




You need to log in to post comments