Guitar Tabs, Chords and Lyrics
Major upgrade!! After one year development the new version of Chordie is now online! Please give feedback.


No More Foolin'  Edguy

As recorded by Edguy
(From the 1998 Album VAIN GLORY OPERA)
Transcribed by _flatline_
Words by Sammet Music by Edguy
[Bb5]6 8 x x x x
[F/A]5 8 x x x x
[Gmaj7/B]x 2 4 0 x x
[Dsus4]x 5 5 x x x
[Ebsus4]x 6 6 x x x
Gtr I (E A D G B E) - 'Untitled'
Gtr II (E A D G B E) - 'Untitled'
Gtr III (E A D G B E) - 'solo'
Intro
Q=200
N.C.
[4/4] Gtr I
PM| PM| PM| PM PM PM PM| PM| PM| PM PM
E E E E E E E E E E E E E E Q E E E E E E E E E E E E E E E E
 
 |-----------------|-----------------|-----------------|--------------------|
 |-----------------|-----------------|-----------------|--------------------|
 |-----9-----7-----|-----------------|-----9-----7-----|--------------------|
 |-----------------|-10---9---7---6--|-----------------|-10---9---7-6-------|
 |-0-0---0-0---0-0-|----0---0---0----|-0-0---0-0---0-0-|----0---0------8-7--|
 |-----------------|-----------------|-----------------|--------------------|

|
| Gtr II
| W W W H E E E E
 
 |-----------------|-----------------|-----------------|--------------------|
 |-----------------|-----------------|-----------------|--------------------|
 |-----------------|-----------------|-----------------|--------------------|
 |-----------------|-----------------|-----------------|--------------------|
 |-----------------|-----------------|-----------------|----------8-7-------|
 |-----------------|-----------------|-----------------|--------------10-8--|

N.C.
PM| PM| PM| PM PM PM PM-| PM| PM| PM PM
E E E E E E E E E E E E E E Q E E E E E E E E E E E E E E E E
 
 |-----------------|-----------------|-------------------|---------------------|
 |-----------------|-----------------|-------------------|---------------------|
 |-----9-----7-----|-----------------|-------9-----7-----|---------------------|
 |-----------------|-10---9---7---6--|-------------------|--10-----9---7-6-----|
 |-0-0---0-0---0-0-|----0---0---0----|--0--0---0-0---0-0-|-------0---0-----8-7-|
 |-----------------|-----------------|-------------------|---------------------|

|
| \3
| W W W +W
 
 |-----------------|-----------------|-------------------|---------------------|
 |-----------------|-----------------|-------------------|---------------------|
 |-----------------|-----------------|-------------------|---------------------|
 |-----------------|-----------------|-------------------|---------------------|
 |-----------------|-----------------|----------------|-()---------------|
 |-----------------|-----------------|-------------------|---------------------|

[A5]PM| PM| PM| PM PM PM [C5]PM| PM| PM| PM PM
E E E E E E E E E E E E E E Q E E E E E E E E E E E E E E E E
 
 |------------------|------------------|------------------|-------------------|
 |------------------|------------------|------------------|-------------------|
 |-----9------7-----|------------------|-----9------7-----|-------------------|
 |------------------|-10----9---7---6--|------------------|-10----9---7-6-----|
 |-0-0----0-0---0-0-|-----0---0---0----|-0-0----0-0---0-0-|-----0---0-----8-7-|
 |------------------|------------------|------------------|-------------------|

|
| E E H. +W E E H. +W
 
 |------------------|------------------|------------------|-------------------|
 |------------------|------------------|------------------|-------------------|
 |-2-2-2------------|-(2)--------------|-5-5-5------------|-(5)---------------|
 |-2-2-2------------|-(2)--------------|-5-5-5------------|-(5)---------------|
 |-0-0-0------------|-(0)--------------|-3-3-3------------|-(3)---------------|
 |------------------|------------------|------------------|-------------------|

[D5]PM| PM| PM| PM PM PM [F5]PM| PM| PM| [E5] PM PM
E E E E E E E E E E E E E E Q E E E E E E E E E E E E E E E E
 
 |------------------|------------------|------------------|-------------------|
 |------------------|------------------|------------------|-------------------|
 |-----9------7-----|------------------|-----9------7-----|-------------------|
 |------------------|-10----9---7---6--|------------------|-10---9----7-6-----|
 |-0-0----0-0---0-0-|-----0---0---0----|-0-0----0-0---0-0-|----0----0-----8-7-|
 |------------------|------------------|------------------|-------------------|

|
| E E H. +W E E H. E E H.
 
 |------------------|------------------|------------------|-------------------|
 |------------------|------------------|------------------|-------------------|
 |-7-7-7------------|-(7)--------------|------------------|-------------------|
 |-7-7-7------------|-(7)--------------|-3-3-3------------|--2-2-2------------|
 |-5-5-5------------|-(5)--------------|-3-3-3------------|--2-2-2------------|
 |------------------|------------------|-1-1-1------------|--0-0-0------------|

Pre-Verse
N.C.
PM| PM| PM| PM PM PM
E E E E E E E E E E E E E E Q
 
 ||-------------------|------------------|
 ||o------------------|------------------|
 ||-------9-----7-----|------------------|
 ||-------------------|-10----9---7---6--|
 ||o-0-0----0-0---0-0-|----0----0---0----|
 ||-------------------|------------------|

|
| PM| PM| PM| PM PM PM
| E E E E E E E E E E E E E E Q
 
 ||-------------------|------------------|
 ||o------------------|------------------|
 ||-------------------|------------------|
 ||------10-----9-----|--7---------------|
 ||o-0-0----0-0---0-0-|----0-11-0-8-0-7--|
 ||-------------------|------------------|

PM| PM| PM| PM PM
E E E E E E E E E E E E E E E E 4x
 
 |------------------|----------------------||
 |------------------|---------------------o||
 |------9-----7-----|----------------------||
 |------------------|-10----9---7-6--------||
 |-0-0----0-0---0-0-|----0----0------8-7--o||
 |------------------|----------------------||

|
| PM| PM| PM| PM PM
| E E E E E E E E E E E E E E E E 4x
 
 |------------------|----------------------||
 |------------------|---------------------o||
 |------------------|----------------------||
 |-----10-----9-----|--7-------------------||
 |-0-0----0-0---0-0-|----0-11-0-8-7-------o||
 |------------------|---------------10-8---||

Verse
[E5]  
 
 PM----------------------------------------------------------------|

[E] [E] [E] [E] [E] [E] [E] [E] [E] [E] [E] [E] [E] [E] [E] [E] [E] [E] [E] [E] [E] [E] [E] [E] [E] [E] [E] [E] [E] [E] [E] [E]  
 
 ||------------------|-----------------|-----------------|-------------------||
 ||o-----------------|-----------------|-----------------|------------------o||
 ||------------------|-----------------|-----------------|-------------------||
 ||----2-2-2---2-2-2-|---2-2-2---2-2-2-|---2-2-2---2-2-2-|---2-2-2---2-2-2---||
 ||o---2-2-2---2-2-2-|---2-2-2---2-2-2-|---2-2-2---2-2-2-|---2-2-2---2-2-2--o||
 ||----0-0-0---0-0-0-|---0-0-0---0-0-0-|---0-0-0---0-0-0-|---0-0-0---0-0-0---||

|
 
 | PM----------------------------------------------------------------|

| E E E E E E E E E E E E E E E E E E E E E E E E E E E E E E E E
 
 ||------------------|-----------------|-----------------|-------------------||
 ||o-----------------|-----------------|-----------------|------------------o||
 ||------------------|-----------------|-----------------|-------------------||
 ||------------------|-----------------|-----------------|-------------------||
 ||o---2-2-2---2-2-2-|---2-2-2---2-2-2-|---2-2-2---2-2-2-|---2-2-2---2-2-2--o||
 ||----0-0-0---0-0-0-|---0-0-0---0-0-0-|---0-0-0---0-0-0-|---0-0-0---0-0-0---||

Guitar Solo 1
N.C.
 
 PM---| PM| PM-------| PM PM PM

E E E E E E E E E E E E E E Q
 
 |-----------------------------|--------------------|
 |-----------------------------|--------------------|
 |---------9-----7-------------|--------------------|
 |-----------------------------|-10------9---7---6--|
 |-0----0----0-0----0--------0-|------0----0---0----|
 |-----------------------------|--------------------|

|
 
 | PM---| PM| PM-------| PM PM PM

| E E E E E E E E E E E E E E Q
 
 |-----------------------------|--------------------|
 |-----------------------------|--------------------|
 |-----------------------------|--------------------|
 |--------10-----9-------------|--7-----------------|
 |-0----0----0-0----0--------0-|------0-11-0-8-0-7--|
 |-----------------------------|--------------------|

|
| Gtr III
| H. S +S E H H
 
 |-----------------------------|--------------------|
 |-----------------------------|--------------------|
 |-7b9=============[7]r([7])p5-|--7b9--------7------|
 |-----------------------------|--------------------|
 |-----------------------------|--------------------|
 |-----------------------------|--------------------|
 PM--| PM--| PM--| PM PM

[E] [E] [E] [E] [E] [E] [E] [E] [E] [E] [E] [E] [E] [E] [E] [E]  
 
 |----------------------------------|---------------------------|
 |----------------------------------|---------------------------|
 |----------9-----------7-----------|---------------------------|
 |----------------------------------|-10-----9--------7--6------|
 |-0---0--------0---0-------0---0---|-----0-----0-----------8-7-|
 |----------------------------------|---------------------------|

|
 
 | PM--| PM--| PM--| PM PM

| E E E E E E E E E E E E E E E E
 
 |----------------------------------|---------------------------|
 |----------------------------------|---------------------------|
 |----------------------------------|---------------------------|
 |---------10-----------9-----------|--7------------------------|
 |-0---0--------0---0-------0---0---|-----0-11--0-----8--7------|
 |----------------------------------|----------------------10-8-|

|
 
 | |--3--| |--3--| |--3--| |--3--|

| E E E E E E E E E E E E Q. +E H
 
 |----------------------------------|---------------------------|
 |----------------------------------|---------------------------|
 |-5h7p==5--4h5p==4-2h4p==2-0h2p==0-|--2-------(2)b3r[2]--------|
 |----------------------------------|---------------------------|
 |----------------------------------|---------------------------|
 |----------------------------------|---------------------------|

Verse
[E5]  
 
 PM------------------------------------------------------------------|

[E] [E] [E] [E] [E] [E] [E] [E] [E] [E] [E] [E] [E] [E] [E] [E] [E] [E] [E] [E] [E] [E] [E] [E] [E] [E] [E] [E] [E] [E] [E] [E]  
 
 ||------------------|-----------------|-----------------|-------------------||
 ||o-----------------|-----------------|-----------------|------------------o||
 ||------------------|-----------------|-----------------|-------------------||
 ||----2-2-2---2-2-2-|---2-2-2---2-2-2-|---2-2-2---2-2-2-|---2-2-2---2-2-2---||
 ||o---2-2-2---2-2-2-|---2-2-2---2-2-2-|---2-2-2---2-2-2-|---2-2-2---2-2-2--o||
 ||----0-0-0---0-0-0-|---0-0-0---0-0-0-|---0-0-0---0-0-0-|---0-0-0---0-0-0---||

|
 
 | PM----------------------------------------------------------------|

| E E E E E E E E E E E E E E E E E E E E E E E E E E E E E E E E
 
 ||------------------|-----------------|-----------------|-------------------||
 ||o-----------------|-----------------|-----------------|------------------o||
 ||------------------|-----------------|-----------------|-------------------||
 ||------------------|-----------------|-----------------|-------------------||
 ||o---2-2-2---2-2-2-|---2-2-2---2-2-2-|---2-2-2---2-2-2-|---2-2-2---2-2-2--o||
 ||----0-0-0---0-0-0-|---0-0-0---0-0-0-|---0-0-0---0-0-0-|---0-0-0---0-0-0---||

N.C.
PM| PM| PM| PM PM PM
E E E E E E E E E E E E E E Q
 
 ||-------------------|------------------|
 ||o------------------|------------------|
 ||-------9-----7-----|------------------|
 ||-------------------|-10----9---7---6--|
 ||o-0-0----0-0---0-0-|----0----0---0----|
 ||-------------------|------------------|

|
| PM| PM| PM| PM PM PM
| E E E E E E E E E E E E E E Q
 
 ||-------------------|------------------|
 ||o------------------|------------------|
 ||-------------------|------------------|
 ||------10-----9-----|--7---------------|
 ||o-0-0----0-0---0-0-|----0-11-0-8-0-7--|
 ||-------------------|------------------|

PM| PM| PM| PM PM
[E] [E] [E] [E] [E] [E] [E] [E] [E] [E] [E] [E] [E] [E] [E] [E]  
 
 |------------------|----------------------||
 |------------------|---------------------o||
 |------9-----7-----|----------------------||
 |------------------|-10----9---7-6--------||
 |-0-0----0-0---0-0-|----0----0------8-7--o||
 |------------------|----------------------||

|
| PM| PM| PM| PM PM
| E E E E E E E E E E E E E E E E
 
 |------------------|----------------------||
 |------------------|---------------------o||
 |------------------|----------------------||
 |-----10-----9-----|--7-------------------||
 |-0-0----0-0---0-0-|----0-11-0-8-7-------o||
 |------------------|---------------10-8---||

Pre-Chorus
[Bb5]H [F/A]Q [Bb5] Q [Bb5]H. Q H [F/A]Q [Bb5] Q [Bb5]W
 
 |------------------|-----------------|------------------|----------------|
 |------------------|-----------------|------------------|----------------|
 |------------------|-----------------|------------------|----------------|
 |------------------|-----------------|------------------|----------------|
 |-8-------8---(8)--|-8-----------8---|-8-------8---(8)--|-8--------------|
 |-6-------5s===6---|-6-----------6---|-6-------5s===6---|-6--------------|

|
 
 | PM--| PM PM---| PM PM--| PM PM--| PM

| E E E Q E E E E E E Q E E E E E E Q E E E E E E Q E E E
 
 |------------------|-----------------|------------------|----------------|
 |------------------|-----------------|------------------|----------------|
 |------------------|-----------------|------------------|----------------|
 |-------8------7h8-|--------8----7h8-|-------8------7h8-|-------8----7h8-|
 |------------------|-----------------|------------------|----------------|
 |-6-6-6-----6------|-6--6-6----6-----|-6-6-6-----6------|-6-6-6----6-----|

N.C.
[4/4] Q Q. Q. Q. Q. Q Q Q. Q. Q. Q. Q
 
 |---------------|----------------|---------------|-----------------|
 |---------------|----------------|---------------|-----------------|
 |---------------|----------------|---------------|-----------------|
 |----7----------|----------------|----7----------|-----------------|
 |---------10----|--8----7-----8--|---------10----|--8----7-----8---|
 |---------------|----------------|---------------|-----------------|

|
| Q Q. Q. Q. Q. Q Q Q. Q. Q. Q. Q
 
 |---------------|----------------|---------------|-----------------|
 |---------------|----------------|---------------|-----------------|
 |---------------|----------------|---------------|-----------------|
 |---------------|----------------|---------------|-----------------|
 |----8-----7----|----------------|----8-----7----|-----------------|
 |---------------|-10----8----10--|---------------|-10----8----10---|

[Bb5]H [F/A]Q [Bb5] Q [Bb5]H. Q H [F/A]Q [Bb5] Q [Bb5]W
 
 |------------------|-----------------|------------------|----------------|
 |------------------|-----------------|------------------|----------------|
 |------------------|-----------------|------------------|----------------|
 |------------------|-----------------|------------------|----------------|
 |-8-------8---(8)--|-8-----------8---|-8-------8---(8)--|-8--------------|
 |-6-------5s===6---|-6-----------6---|-6-------5s===6---|-6--------------|

|
 
 | PM--| PM PM---| PM PM--| PM PM--| PM

| E E E Q E E E E E E Q E E E E E E Q E E E E E E Q E E E
 
 |------------------|-----------------|------------------|----------------|
 |------------------|-----------------|------------------|----------------|
 |------------------|-----------------|------------------|----------------|
 |-------8------7h8-|--------8----7h8-|-------8------7h8-|-------8----7h8-|
 |------------------|-----------------|------------------|----------------|
 |-6-6-6-----6------|-6--6-6----6-----|-6-6-6-----6------|-6-6-6----6-----|

[E5]W +W [C5]W [Gmaj7/B]W
 
 |---------------|-----------------|---------------|----------------|
 |---------------|-----------------|---------------|----------------|
 |---------------|-----------------|---------------|-0--------------|
 |-2-------------|-(2)-------------|-5-------------|-4--------------|
 |-2-------------|-(2)-------------|-3-------------|-2--------------|
 |-0-------------|-(0)-------------|---------------|----------------|

|
 
 | PM| PM| PM| PM| PM| PM| PM--------|

| Q E E Q E E Q E E Q E E Q E E Q E E Q E E E E E E
 
 |---------------|-----------------|---------------|----------------|
 |---------------|-----------------|---------------|----------------|
 |---------------|-----------------|---------------|----------------|
 |---------------|-----------------|-5------5------|-4--------------|
 |-2------2------|--2-------2------|-3--3-3-3--3-3-|-2--2-2-2-2-2-2-|
 |-0--0-0-0--0-0-|--0---0-0-0--0-0-|---------------|----------------|

Chorus
N.C. Bb5
 
 PM--------| PM--------| PM--------|

E E E E E E E E E E E E E E E E E E E E E E E E Q. Q. Q
 
 ||------------------|-----------------|-----------------|---------------|
 ||o-----------------|-----------------|-----------------|---------------|
 ||------------------|-----------------|-----------------|---------------|
 ||------------------|-----------------|-----------------|-8----8----8---|
 ||o-5h7-------------|-8p7-------------|-5h7-------------|-8----8----8---|
 ||------0-0-0-0-0-0-|-----0-0-0-0-0-0-|-----0-0-0-0-0-0-|-6----6----6---|

|
 
 | PM--------| PM--------| PM--------|

| E E E E E E E E E E E E E E E E E E E E E E E E Q. Q. Q
 
 ||------------------|-----------------|-----------------|---------------|
 ||o-----------------|-----------------|-----------------|---------------|
 ||------------------|-----------------|-----------------|---------------|
 ||--4h5-------------|-----------------|-4h5-------------|-8----8----8---|
 ||o-----------------|-8p7-------------|-----------------|-8----8----8---|
 ||------0-0-0-0-0-0-|-----0-0-0-0-0-0-|-----0-0-0-0-0-0-|-6----6----6---|

N.C. C5 D5
 
 PM--------| PM--------|

E E E E E E E E E E E E E E E E W W
 
 |-----------------|-----------------|----------|-------||
 |-----------------|-----------------|----------|------o||
 |-----------------|-----------------|-5--------|-7-----||
 |-----------------|-----------------|-5--------|-7-----||
 |-5h7-------------|-8p7-------------|-3--------|-5----o||
 |-----0-0-0-0-0-0-|-----0-0-0-0-0-0-|----------|-------||

|
 
 | PM--------| PM--------|

| E E E E E E E E E E E E E E E E W W
 
 |-----------------|-----------------|----------|-------||
 |-----------------|-----------------|----------|------o||
 |-----------------|-----------------|-5--------|-7-----||
 |-4h5-------------|-7p5-------------|-5--------|-7-----||
 |-----------------|-----------------|-3--------|-5----o||
 |-----0-0-0-0-0-0-|-----0-0-0-0-0-0-|----------|-------||

Out-Chorus
[G5]W [D5]W [E5] Q Q E [D5] Q. [E5] W
 
 |----------|----------|-----------------|---------------------|
 |----------|----------|-----------------|---------------------|
 |----------|----------|-----------------|---------------------|
 |----------|-7--------|--9---9-----7----|--9------------------|
 |-5--------|-5--------|--7---7-----5----|--7------------------|
 |-3--------|----------|-----------------|---------------------|

|
| W W Q Q E Q. E E E E +H
 
 |----------|----------|-----------------|---------------------|
 |----------|----------|-----------------|---------------------|
 |----------|----------|-12--12----11----|-12-12-12-12-(12)----|
 |----------|-7--------|-----------------|---------------------|
 |-5--------|-5--------|-10--10-----9----|-10-10-10-10-(10)----|
 |-3--------|----------|-----------------|---------------------|

[G5]W [D5]W [C5]W +W
 
 |----------|----------|----------|--------|
 |----------|----------|----------|--------|
 |----------|----------|----------|--------|
 |----------|-7--------|-5--------|-(5)----|
 |-5--------|-5--------|-3--------|-(3)----|
 |-3--------|----------|----------|--------|

|
| W W W +W
 
 |----------|----------|----------|--------|
 |----------|----------|----------|--------|
 |----------|----------|----------|--------|
 |----------|-7--------|-5--------|-(5)----|
 |-5--------|-5--------|-3--------|-(3)----|
 |-3--------|----------|----------|--------|

[F5]W +W [G5]W +W
 
 |----------|------------|----------|--------|
 |----------|------------|----------|--------|
 |----------|------------|----------|--------|
 |-3--------|-(3)--------|-5--------|-(5)----|
 |-3--------|-(3)--------|-5--------|-(5)----|
 |-1--------|-(1)--------|-3--------|-(3)----|

|
| W +W W +W
 
 |----------|------------|----------|--------|
 |----------|------------|----------|--------|
 |----------|------------|----------|--------|
 |-3--------|-(3)--------|-5--------|-(5)----|
 |-3--------|-(3)--------|-5--------|-(5)----|
 |-1--------|-(1)--------|-3--------|-(3)----|

Pre-Verse
N.C.
PM| PM| PM| PM PM PM
E E E E E E E E E E E E E E Q
 
 ||-------------------|------------------|
 ||o------------------|------------------|
 ||-------9-----7-----|------------------|
 ||-------------------|-10----9---7---6--|
 ||o-0-0----0-0---0-0-|----0----0---0----|
 ||-------------------|------------------|

|
| PM| PM| PM| PM PM PM
| E E E E E E E E E E E E E E Q
 
 ||-------------------|------------------|
 ||o------------------|------------------|
 ||-------------------|------------------|
 ||------10-----9-----|--7---------------|
 ||o-0-0----0-0---0-0-|----0-11-0-8-0-7--|
 ||-------------------|------------------|

PM| PM| PM| PM PM
[E] [E] [E] [E] [E] [E] [E] [E] [E] [E] [E] [E] [E] [E] [E] [E]  
 
 |------------------|----------------------||
 |------------------|---------------------o||
 |------9-----7-----|----------------------||
 |------------------|-10----9---7-6--------||
 |-0-0----0-0---0-0-|----0----0------8-7--o||
 |------------------|----------------------||

|
| PM| PM| PM| PM PM
| E E E E E E E E E E E E E E E E
 
 |------------------|----------------------||
 |------------------|---------------------o||
 |------------------|----------------------||
 |-----10-----9-----|--7-------------------||
 |-0-0----0-0---0-0-|----0-11-0-8-7-------o||
 |------------------|---------------10-8---||

A5 N.C.
W +W Q. Q. Q +E Q. Q Q
 
 |----------|-----------------|----------------|------------------|
 |----------|-----------------|----------------|------------------|
 |----------|-----------------|--9----7--------|------------------|
 |----------|-----------------|------------10--|-(10)--9----7--6--|
 |-7--------|-(7)-------------|----------------|------------------|
 |-5--------|-(5)-------------|----------------|------------------|

|
| \1/ \1/
| W +H +H Q. Q. Q +E Q. Q Q
 
 |----------|-----------------|----------------|------------------|
 |----------|-----------------|----------------|------------------|
 |----------|-----------------|----------------|------------------|
 |----------|-----------------|-10----9-----7--|--(7)-------------|
 |-7--------|-(7)-----(7)-----|----------------|------10----8--7--|
 |-5--------|-(5)-----(5)-----|----------------|------------------|

Verse
[E5]  
 
 PM----------------------------------------------------------------|

[E] [E] [E] [E] [E] [E] [E] [E] [E] [E] [E] [E] [E] [E] [E] [E] [E] [E] [E] [E] [E] [E] [E] [E] [E] [E] [E] [E] [E] [E] [E] [E]  
 
 ||------------------|-----------------|-----------------|-------------------||
 ||o-----------------|-----------------|-----------------|------------------o||
 ||------------------|-----------------|-----------------|-------------------||
 ||----2-2-2---2-2-2-|---2-2-2---2-2-2-|---2-2-2---2-2-2-|---2-2-2---2-2-2---||
 ||o---2-2-2---2-2-2-|---2-2-2---2-2-2-|---2-2-2---2-2-2-|---2-2-2---2-2-2--o||
 ||----0-0-0---0-0-0-|---0-0-0---0-0-0-|---0-0-0---0-0-0-|---0-0-0---0-0-0---||

|
 
 | PM----------------------------------------------------------------|

| E E E E E E E E E E E E E E E E E E E E E E E E E E E E E E E E
 
 ||------------------|-----------------|-----------------|-------------------||
 ||o-----------------|-----------------|-----------------|------------------o||
 ||------------------|-----------------|-----------------|-------------------||
 ||------------------|-----------------|-----------------|-------------------||
 ||o---2-2-2---2-2-2-|---2-2-2---2-2-2-|---2-2-2---2-2-2-|---2-2-2---2-2-2--o||
 ||----0-0-0---0-0-0-|---0-0-0---0-0-0-|---0-0-0---0-0-0-|---0-0-0---0-0-0---||

Guitar Solo 2
N.C.
 
 PM----| PM| PM-----| PM PM PM

E E E E E E E E E E E E E E Q
 
 |-----------------------------|----------------------|
 |-----------------------------|----------------------|
 |-----------9-----7-----------|----------------------|
 |-----------------------------|-10-------9----7---6--|
 |--0-----0----0-0----0------0-|-------0----0----0----|
 |-----------------------------|----------------------|

|
 
 | PM----| PM| PM-----| PM PM PM

| E E E E E E E E E E E E E E Q
 
 |-----------------------------|----------------------|
 |-----------------------------|----------------------|
 |-----------------------------|----------------------|
 |----------10-----9-----------|--7-------------------|
 |--0-----0----0-0----0------0-|-------0-11-0--8-0-7--|
 |-----------------------------|----------------------|

|
| Gtr III
| H. S +S E H H
 
 |-----------------------------|----------------------|
 |-----------------------------|----------------------|
 |-12b14=============12r(12)p9-|-12b14--------12------|
 |-----------------------------|----------------------|
 |-----------------------------|----------------------|
 |-----------------------------|----------------------|
 PM---| PM---| PM---| PM PM

[E] [E] [E] [E] [E] [E] [E] [E] [E] [E] [E] [E] [E] [E] [E] [E]  
 
 |---------------------------------------------|-----------------------------------|
 |---------------------------------------------|-----------------------------------|
 |-------------9---------------7---------------|-----------------------------------|
 |---------------------------------------------|-10----------9----------7-6--------|
 |--0----0----------0-----0----------0----0----|-------0----------0----------8-7---|
 |---------------------------------------------|-----------------------------------|

|
 
 | PM---| PM---| PM---| PM PM

| E E E E E E E E E E E E E E E E
 
 |---------------------------------------------|-----------------------------------|
 |---------------------------------------------|-----------------------------------|
 |---------------------------------------------|-----------------------------------|
 |------------10---------------9---------------|--7--------------------------------|
 |--0----0----------0-----0----------0----0----|-------0----11----0-----8-7--------|
 |---------------------------------------------|----------------------------10-8---|

|
| ~~
 
 | |---3---| |---3---| |---3---| |---3---| |---3---| |---3---|

| E E E E E E E E E E E E E E E E E E H
 
 |---------------------------------------------|-----------------------------------|
 |-10-12---13-12-10------10-12---13-12-10------|-10-12---13-12-10------10----------|
 |--------------------12--------------------12-|--------------------12-------------|
 |---------------------------------------------|-----------------------------------|
 |---------------------------------------------|-----------------------------------|
 |---------------------------------------------|-----------------------------------|

Verse
[E5]  
 
 PM----------------------------------------------------------------|

[E] [E] [E] [E] [E] [E] [E] [E] [E] [E] [E] [E] [E] [E] [E] [E] [E] [E] [E] [E] [E] [E] [E] [E] [E] [E] [E] [E] [E] [E] [E] [E]  
 
 ||------------------|-----------------|-----------------|-------------------||
 ||o-----------------|-----------------|-----------------|------------------o||
 ||------------------|-----------------|-----------------|-------------------||
 ||----2-2-2---2-2-2-|---2-2-2---2-2-2-|---2-2-2---2-2-2-|---2-2-2---2-2-2---||
 ||o---2-2-2---2-2-2-|---2-2-2---2-2-2-|---2-2-2---2-2-2-|---2-2-2---2-2-2--o||
 ||----0-0-0---0-0-0-|---0-0-0---0-0-0-|---0-0-0---0-0-0-|---0-0-0---0-0-0---||

|
 
 | PM----------------------------------------------------------------|

| E E E E E E E E E E E E E E E E E E E E E E E E E E E E E E E E
 
 ||------------------|-----------------|-----------------|-------------------||
 ||o-----------------|-----------------|-----------------|------------------o||
 ||------------------|-----------------|-----------------|-------------------||
 ||------------------|-----------------|-----------------|-------------------||
 ||o---2-2-2---2-2-2-|---2-2-2---2-2-2-|---2-2-2---2-2-2-|---2-2-2---2-2-2--o||
 ||----0-0-0---0-0-0-|---0-0-0---0-0-0-|---0-0-0---0-0-0-|---0-0-0---0-0-0---||

N.C.
PM| PM| PM| PM PM PM
E E E E E E E E E E E E E E Q
 
 ||-------------------|------------------|
 ||o------------------|------------------|
 ||-------9-----7-----|------------------|
 ||-------------------|-10----9---7---6--|
 ||o-0-0----0-0---0-0-|----0----0---0----|
 ||-------------------|------------------|

|
| PM| PM| PM| PM PM PM
| E E E E E E E E E E E E E E Q
 
 ||-------------------|------------------|
 ||o------------------|------------------|
 ||-------------------|------------------|
 ||------10-----9-----|--7---------------|
 ||o-0-0----0-0---0-0-|----0-11-0-8-0-7--|
 ||-------------------|------------------|

PM| PM| PM| PM PM
[E] [E] [E] [E] [E] [E] [E] [E] [E] [E] [E] [E] [E] [E] [E] [E]  
 
 |------------------|----------------------||
 |------------------|---------------------o||
 |------9-----7-----|----------------------||
 |------------------|-10----9---7-6--------||
 |-0-0----0-0---0-0-|----0----0------8-7--o||
 |------------------|----------------------||

|
| PM| PM| PM| PM PM
| E E E E E E E E E E E E E E E E
 
 |------------------|----------------------||
 |------------------|---------------------o||
 |------------------|----------------------||
 |-----10-----9-----|--7-------------------||
 |-0-0----0-0---0-0-|----0-11-0-8-7-------o||
 |------------------|---------------10-8---||

Pre-Chorus
[Bb5]H [F/A]Q [Bb5] Q [Bb5]H. Q H [F/A]Q [Bb5] Q [Bb5]W
 
 |------------------|-----------------|------------------|----------------|
 |------------------|-----------------|------------------|----------------|
 |------------------|-----------------|------------------|----------------|
 |------------------|-----------------|------------------|----------------|
 |-8-------8---(8)--|-8-----------8---|-8-------8---(8)--|-8--------------|
 |-6-------5s===6---|-6-----------6---|-6-------5s===6---|-6--------------|

|
 
 | PM--| PM PM---| PM PM--| PM PM--| PM

| E E E Q E E E E E E Q E E E E E E Q E E E E E E Q E E E
 
 |------------------|-----------------|------------------|----------------|
 |------------------|-----------------|------------------|----------------|
 |------------------|-----------------|------------------|----------------|
 |-------8------7h8-|--------8----7h8-|-------8------7h8-|-------8----7h8-|
 |------------------|-----------------|------------------|----------------|
 |-6-6-6-----6------|-6--6-6----6-----|-6-6-6-----6------|-6-6-6----6-----|

N.C.
Q Q. Q. Q. Q. Q Q Q. Q. Q. Q. Q
 
 |---------------|----------------|---------------|----------------|
 |---------------|----------------|---------------|----------------|
 |---------------|----------------|---------------|----------------|
 |----7----------|----------------|----7----------|----------------|
 |---------10----|--8----7-----8--|---------10----|--8----7-----8--|
 |---------------|----------------|---------------|----------------|

|
| Q Q. Q. Q. Q. Q Q Q. Q. Q. Q. Q
 
 |---------------|----------------|---------------|----------------|
 |---------------|----------------|---------------|----------------|
 |---------------|----------------|---------------|----------------|
 |---------------|----------------|---------------|----------------|
 |----8-----7----|----------------|----8-----7----|----------------|
 |---------------|-10----8----10--|---------------|-10----8----10--|

[Bb5]H [F/A]Q [Bb5] Q [Bb5]H. Q H [F/A]Q [Bb5] Q [Bb5]W
 
 |------------------|-----------------|------------------|----------------|
 |------------------|-----------------|------------------|----------------|
 |------------------|-----------------|------------------|----------------|
 |------------------|-----------------|------------------|----------------|
 |-8-------8---(8)--|-8-----------8---|-8-------8---(8)--|-8--------------|
 |-6-------5s===6---|-6-----------6---|-6-------5s===6---|-6--------------|

|
 
 | PM--| PM PM---| PM PM--| PM PM--| PM

| E E E Q E E E E E E Q E E E E E E Q E E E E E E Q E E E
 
 |------------------|-----------------|------------------|----------------|
 |------------------|-----------------|------------------|----------------|
 |------------------|-----------------|------------------|----------------|
 |-------8------7h8-|--------8----7h8-|-------8------7h8-|-------8----7h8-|
 |------------------|-----------------|------------------|----------------|
 |-6-6-6-----6------|-6--6-6----6-----|-6-6-6-----6------|-6-6-6----6-----|

[E5]W +W [C5]W [Gmaj7/B]W
 
 |---------------|-----------------|---------------|----------------|
 |---------------|-----------------|---------------|----------------|
 |---------------|-----------------|---------------|-0--------------|
 |-2-------------|-(2)-------------|-5-------------|-4--------------|
 |-2-------------|-(2)-------------|-3-------------|-2--------------|
 |-0-------------|-(0)-------------|---------------|----------------|

|
 
 | PM| PM| PM| PM| PM| PM| PM--------|

| Q E E Q E E Q E E Q E E Q E E Q E E Q E E E E E E
 
 |---------------|-----------------|---------------|----------------|
 |---------------|-----------------|---------------|----------------|
 |---------------|-----------------|---------------|----------------|
 |---------------|-----------------|-5------5------|-4--------------|
 |-2------2------|--2-------2------|-3--3-3-3--3-3-|-2--2-2-2-2-2-2-|
 |-0--0-0-0--0-0-|--0---0-0-0--0-0-|---------------|----------------|

Chorus
N.C. Bb5
 
 PM--------| PM--------| PM--------|

E E E E E E E E E E E E E E E E E E E E E E E E Q. Q. Q
 
 ||------------------|-----------------|-----------------|---------------|
 ||o-----------------|-----------------|-----------------|---------------|
 ||------------------|-----------------|-----------------|---------------|
 ||------------------|-----------------|-----------------|-8----8----8---|
 ||o-5h7-------------|-8p7-------------|-5h7-------------|-8----8----8---|
 ||------0-0-0-0-0-0-|-----0-0-0-0-0-0-|-----0-0-0-0-0-0-|-6----6----6---|

|
 
 | PM--------| PM--------| PM--------|

| E E E E E E E E E E E E E E E E E E E E E E E E Q. Q. Q
 
 ||------------------|-----------------|-----------------|---------------|
 ||o-----------------|-----------------|-----------------|---------------|
 ||------------------|-----------------|-----------------|---------------|
 ||--4h5-------------|-----------------|-4h5-------------|-8----8----8---|
 ||o-----------------|-8p7-------------|-----------------|-8----8----8---|
 ||------0-0-0-0-0-0-|-----0-0-0-0-0-0-|-----0-0-0-0-0-0-|-6----6----6---|

N.C. C5 D5
 
 PM--------| PM--------|

E E E E E E E E E E E E E E E E W W
 
 |-----------------|-----------------|----------|-------||
 |-----------------|-----------------|----------|------o||
 |-----------------|-----------------|-5--------|-7-----||
 |-----------------|-----------------|-5--------|-7-----||
 |-5h7-------------|-8p7-------------|-3--------|-5----o||
 |-----0-0-0-0-0-0-|-----0-0-0-0-0-0-|----------|-------||

|
 
 | PM--------| PM--------|

| E E E E E E E E E E E E E E E E W W
 
 |-----------------|-----------------|----------|-------||
 |-----------------|-----------------|----------|------o||
 |-----------------|-----------------|-5--------|-7-----||
 |-4h5-------------|-7p5-------------|-5--------|-7-----||
 |-----------------|-----------------|-3--------|-5----o||
 |-----0-0-0-0-0-0-|-----0-0-0-0-0-0-|----------|-------||

Out-Chorus
[G5]W [D5]W [E5] Q Q E [D5] Q. [E5] W
 
 |----------|----------|-----------------|---------------------|
 |----------|----------|-----------------|---------------------|
 |----------|----------|-----------------|---------------------|
 |----------|-7--------|--9---9-----7----|--9------------------|
 |-5--------|-5--------|--7---7-----5----|--7------------------|
 |-3--------|----------|-----------------|---------------------|

|
| W W Q Q E Q. E E E E +H
 
 |----------|----------|-----------------|---------------------|
 |----------|----------|-----------------|---------------------|
 |----------|----------|-12--12----11----|-12-12-12-12-(12)----|
 |----------|-7--------|-----------------|---------------------|
 |-5--------|-5--------|-10--10-----9----|-10-10-10-10-(10)----|
 |-3--------|----------|-----------------|---------------------|

[G5]W [D5]W [C5]W +W
 
 |----------|----------|----------|--------|
 |----------|----------|----------|--------|
 |----------|----------|----------|--------|
 |----------|-7--------|-5--------|-(5)----|
 |-5--------|-5--------|-3--------|-(3)----|
 |-3--------|----------|----------|--------|

|
| W W W +W
 
 |----------|----------|----------|--------|
 |----------|----------|----------|--------|
 |----------|----------|----------|--------|
 |----------|-7--------|-5--------|-(5)----|
 |-5--------|-5--------|-3--------|-(3)----|
 |-3--------|----------|----------|--------|

[F5]W +W [G5]W +W
 
 |----------|------------|----------|--------|
 |----------|------------|----------|--------|
 |----------|------------|----------|--------|
 |-3--------|-(3)--------|-5--------|-(5)----|
 |-3--------|-(3)--------|-5--------|-(5)----|
 |-1--------|-(1)--------|-3--------|-(3)----|

|
| W +W W +W
 
 |----------|------------|----------|--------|
 |----------|------------|----------|--------|
 |----------|------------|----------|--------|
 |-3--------|-(3)--------|-5--------|-(5)----|
 |-3--------|-(3)--------|-5--------|-(5)----|
 |-1--------|-(1)--------|-3--------|-(3)----|

Interlude
E5 F5 E5 Dsus4 Ebsus4 E5 F5 E5 N.C.
PM PM PM PM
W W H.. E E E E E E E E E
 
 |----------------|-----------------------|-----------------|------------------|
 |----------------|-----------------------|-----------------|------------------|
 |----------------|-----------------------|-----------------|------------------|
 |----------------|-----------------------|-----------------|------------------|
 |----------------|-----------------------|-----------------|-7---8---7--------|
 |----------------|-----------------------|---------------0-|---0---0---0-8p7\-|

|
 
 | PM PM PM PM------------| PM PM PM PM PM PM

| Q E E E E E E +E E E E S S E S S E Q E E E Q E E E E E E E E E
 
 |----------------|-----------------------|-----------------|------------------|
 |----------------|-----------------------|-----------------|------------------|
 |----------------|-----------------------|-----------------|------------------|
 |--------------5-|-(5)h7-----------------|-----------------|------------------|
 |-2----3---2---5-|-(5)h7-----------------|-2------3---2----|-7---8---7--------|
 |-0--0-1-0-0-0---|-------0-0-0-0-0-0-0-0-|-0----0-1-0-0--0-|---0---0---0-8p7\-|

E5 F5 E5 Dsus4 Ebsus4 E5 F5 E5 N.C.
 
 PM PM PM PM------------| PM PM

|--3--|
Q E E E E E E +E E E E S S E S S E Q E E E Q. Q Q Q H 4x
 
 ||-----------------|-----------------------|---------------|------------------||
 ||o----------------|-----------------------|---------------|-----------------o||
 ||-----------------|-----------------------|---------------|-------12-11\-----||
 ||---------------5-|-(5)h7-----------------|---------------|----11------------||
 ||o-2----3---2---5-|-(5)h7-----------------|-2----3---2----|-10--------------o||
 ||--0--0-1-0-0-0---|-------0-0-0-0-0-0-0-0-|-0--0-1-0-0----|------------------||

|
 
 | PM PM PM PM------------| PM PM

| |--3--|
| Q E E E E E E +E E E E S S E S S E Q E E E Q. Q Q Q H 4x
 
 ||-----------------|-----------------------|---------------|------------------||
 ||o----------------|-----------------------|---------------|-----------------o||
 ||-----------------|-----------------------|---------------|--------9--8\-----||
 ||---------------5-|-(5)h7-----------------|---------------|-----8------------||
 ||o-2----3---2---5-|-(5)h7-----------------|-2----3---2----|--7--------------o||
 ||--0--0-1-0-0-0---|-------0-0-0-0-0-0-0-0-|-0--0-1-0-0----|------------------||

[C5]W +W [D5]W +W
 
 |----------------|------------------|----------------|------------------|
 |----------------|------------------|----------------|------------------|
 |-5--------------|-(5)--------------|-7--------------|-(7)--------------|
 |-5--------------|-(5)--------------|-7--------------|-(7)--------------|
 |-3--------------|-(3)--------------|-5--------------|-(5)--------------|
 |----------------|------------------|----------------|------------------|

|
 
 | PM--| PM PM---| PM PM--| PM PM---| PM

| E E E Q E E E E E E Q E E E E E E Q E E E E E E Q E E E
 
 |----------------|------------------|----------------|------------------|
 |----------------|------------------|----------------|------------------|
 |-------5----4h5-|---------5----4h5-|-------7----5h7-|---------7----5h7-|
 |----------------|------------------|----------------|------------------|
 |-3-3-3----3-----|--3--3-3----3-----|-5-5-5----5-----|--5--5-5----5-----|
 |----------------|------------------|----------------|------------------|

Guitar Solo 3
[B5]  
 
 PM---| PM---| PM---| PM---|

Q E E Q E E Q E E Q E E
 
 |-------------------------------------|----------------------------------------|
 |-------------------------------------|----------------------------------------|
 |-------------------------------------|----------------------------------------|
 |-4-----------------4-----------------|-4-------------------4------------------|
 |-2-------2----2----2-------2----2----|-2--------2----2-----2--------2----2----|
 |-------------------------------------|----------------------------------------|

|
 
 | PM---| PM---| PM---| PM---|

| Q E E Q E E Q E E Q E E
 
 |-------------------------------------|----------------------------------------|
 |-------------------------------------|----------------------------------------|
 |-------------------------------------|----------------------------------------|
 |-4-----------------4-----------------|-4-------------------4------------------|
 |-2-------2----2----2-------2----2----|-2--------2----2-----2--------2----2----|
 |-------------------------------------|----------------------------------------|

|
| Gtr III
 
 | |--3--| |---3---| |--3--| |---3---| |--3--| |---3---| |--3--| |---3---|

| E E E E E E E E E E E E E E E E E E E E E E E E
 
 |-------------------------------------|----------------------------------------|
 |-------------------------------------|---------10-12---13-10-12-13-10-12---13-|
 |-------------------9-11-12-----------|-9-11-12--------------------------------|
 |-9-10-12-9-10---12---------9-10---12-|----------------------------------------|
 |-------------------------------------|----------------------------------------|
 |-------------------------------------|----------------------------------------|
 PM---| PM---|

Q E E Q E E W
 
 |-----------------------------------------|-----------------------|
 |-----------------------------------------|-----------------------|
 |-----------------------------------------|--4--------------------|
 |--4-------------------4------------------|--4--------------------|
 |--2--------2----2-----2--------2----2----|--2--------------------|
 |-----------------------------------------|-----------------------|

|
 
 | PM---| PM---|

| Q E E Q E E W
 
 |-----------------------------------------|-----------------------|
 |-----------------------------------------|-----------------------|
 |-----------------------------------------|--4--------------------|
 |--4-------------------4------------------|--4--------------------|
 |--2--------2----2-----2--------2----2----|--2--------------------|
 |-----------------------------------------|-----------------------|

|
| ~~~~~~~~~~~
 
 | |--3--| |---3---| |--3--| |---3---|

| E E E E E E E E E E E E Q. +E +H
 
 |-----------------------------------------|-----------------------|
 |-10-12-13-12-10------10-12-13-12-10------|-12----(12)b13r(12)----|
 |------------------12------------------12-|-----------------------|
 |-----------------------------------------|-----------------------|
 |-----------------------------------------|-----------------------|
 |-----------------------------------------|-----------------------|

Chorus
N.C. Bb5
 
 PM--------| PM--------| PM--------|

E E E E E E E E E E E E E E E E E E E E E E E E Q. Q. Q
 
 ||------------------|-----------------|-----------------|---------------|
 ||o-----------------|-----------------|-----------------|---------------|
 ||------------------|-----------------|-----------------|---------------|
 ||------------------|-----------------|-----------------|-8----8----8---|
 ||o-5h7-------------|-8p7-------------|-5h7-------------|-8----8----8---|
 ||------0-0-0-0-0-0-|-----0-0-0-0-0-0-|-----0-0-0-0-0-0-|-6----6----6---|

|

Important: The song above is NOT stored on the Chordie server. The original song is hosted at www.guitaretab.com. Chordie works as a search engine and provides on-the-fly formatting. Chordie does not index songs against artists'/composers' will. To remove this song please click here.

Text color:
Chord color:
Chord grids: 
Font size:    
Page size: 

A5 B5 Bb5 C5 D5 Dsus4 E E5 F5 G5 Gmaj7/B
Rate #1 of 2 versions

Login - add to songbook

SHARE PAGE  




You need to log in to post comments