Guitar Tabs, Chords and Lyrics
Major upgrade!! After one year development the new version of Chordie is now online! Please give feedback.


Going Fetal  EELS

 
 ----------------------------------------------------------------------------

Going Fetal - Eels
 
 ----------------------------------------------------------------------------

Tabbed by:Anton Petersson
Email:antonpetersson1@hotmail.com
Tuning:EADGBe
Intro:
Play this tune
e|-0-|
B|---|
G|---|
D|---|
A|---|
E|---|
and the drum starts to play
and then:
[E] [A] [D] [A] [E] [A] [D] [A] [A] [A] [A]  
 
 e|-----0------0--------2----------------0-----0--------2------0-0-0-0---|
 B|---0---0------2----3---3----2-------0---0-----2----3---3----2-2-2-0---|
 G|------------------------------2-----------------------------2-2-2-1---|
 D|-----------------0-------------------------------0----------2-2-2-2---|
 A|---------0----------------0---------------0---------------0-0-0-0-2---|
 E|-0--------------------------------0-------------------------------0---|

wääääh
[E] [A] [D] [A] [E] [A] [D] [A] [A] [A] [A]  
 
 e|-----0------0--------2----------------0-----0--------2------0-0-0-0---|
 B|---0---0------2----3---3----2-------0---0-----2----3---3----2-2-2-0---|
 G|------------------------------2-----------------------------2-2-2-1---|
 D|-----------------0-------------------------------0----------2-2-2-2---|
 A|---------0----------------0---------------0---------------0-0-0-0-2---|
 E|-0--------------------------------0-------------------------------0---|

HEY
Play the chords as above
[E]Everyo[A]ne is [D]going [A]fe[A]ta[A]l
[E]It's the [A]dance the [D]kids all[A] f[A]ee[A]l
[G]Just get d[D]own u[C]nder your d[D]esk
[G]Feels l[D]ike your [C]mama's n[D]est
Alrig[E]ht
Vers 2
Everyone is going fetal
It's the one thats really real
You're gonna love it if you give it a try
You just lay down like you're gonna die
Alright
Verse 3
Everyone is going fetal
If you feel like your fate is sealed
Then just get down and curl on up
Just like a little helpless pup
Alright
Everyone is going fetal (and so on)

Important: The song above is NOT stored on the Chordie server. The original song is hosted at www.guitaretab.com. Chordie works as a search engine and provides on-the-fly formatting. Chordie does not index songs against artists'/composers' will. To remove this song please click here.

Text color:
Chord color:
Chord grids: 
Font size:    
Page size: 

A C D E G
Rate #1 of 3 versions

Jango Player

Login - add to songbook

SHARE PAGE  



You need to log in to post comments