Guitar Tabs, Chords and Lyrics
Major upgrade!! After one year development the new version of Chordie is now online! Please give feedback.


When I Get to the Green Building  Electric Six

 
 -------------------------------------------------------------------------------

When I Get To The Green Building - Electric Six
 
 -------------------------------------------------------------------------------

Tabbed by: Refugeesus
Email: bxy959@hotmail.com
Tuning: Standard
These are the patterns i used to map out the song. Let me know if this is
confusing and i wont repeat it :)
FIG. 1 FIG. 1a
 
 e|-------------------| e|-------------------|
 B|-------------------| B|-------------------|
 G|-------------------| G|-------------------|
 D|--0--------0-------| D|--0--------0-------|
 A|----0-3/7----0-3/7-| A|----0-3/7----0-3---|
 E|-------------------| E|-----------------0-|

FIG. 2 FIG. 2a
 
 e|-------------------| e|-------------------|
 B|-------------------| B|-------------------|
 G|-------------------| G|-------------------|
 D|----0--------0-----| D|----0--------------|
 A|------0-3------0-3-| A|------0-3~ --------|
 E|--3--------3-------| E|--3----------------|

FIG. 3 FIG. 4
 
 e|-------------------| e|-------------------|
 B|-------------------| B|-------------------|
 G|-------------------| G|-------------------|
 D|----/7-7-7-7---7-7-| D|--0----------------|
 A|--3----------------| A|----3-0---3/7-3/7--|
 E|-------------------| E|--------3----------|

FIG. 5
 
 e|--2-----------3-----------------|
 B|--3---3---1---3---1-------1-----|
 G|--2---0---2---0---0---1---0---1-|
 D|--0---2---2---0---2---2---2---2-| with a bit of strumming
 A|------3---0---2---3---2---3---2-|
 E|--------------3-------0-------0-|

[D] [C9] [Am] [G] [C] [E] [C] [E]  
Pattern
FIG 1, FIG 1a X2, FIG 2, FIG 2a, FIG 1 X2,
FIG 1 X2, FIG 1a, FIG 2, FIG 2a, FIG 1 X2,
FIG 1, FIG 3 X4, FIG 4 X4, FIG 5 X2
| / slide up
| ~ vibrato
Lyrics:
Angels and demons holding hands and whistling dixie
We haven't had that kind of fun 'round here since 1960
We wait in longer lines than the Russian's ever did
Selling our children's souls to the highest bid
I cant describe the way it feels!
These songs will blare out of your eyes when i get to the green building
My arrival will be televised when i get to the green building
When i get to the green building
Na na na na na na na na
Na na na na na na na na
Satan's cheerleaders prancing 'round the maypole in December
We haven't had that kind of spectacle here since i can remember
Our fearless leaders say their equal to the task
And every point of view on this depends on who you ask
It doesn't matter anyway!
Our prophecies are realised when i get to the green building
The stars will shine out of your eyes when i get to the green building
When i get to the green building
Na na na na na na na na
Na na na na na na na na
And isn't it interesting to see whose heart shall pass?
As they try to hide them but they're made of glass
And isn't it interesting to see who lives or dies?
On the roller coasters and the water slides
And isn't it interesting to watch them play the game?
When they're all such cheaters and they have no shame
And isn't it interesting to hear the demons sing?
When the doorbell rings at the green building
Isn't it interesting? Isn't it interesting?
When the doorbell rings at the green building
And isn't it interesting? Isn't it interesting?
===============================================================================

Important: The song above is NOT stored on the Chordie server. The original song is hosted at www.guitaretab.com. Chordie works as a search engine and provides on-the-fly formatting. Chordie does not index songs against artists'/composers' will. To remove this song please click here.

Text color:
Chord color:
Chord grids: 
Font size:    
Page size: 

Am C C9 D E G
Rate #2 of 2 versions

Login - add to songbook

SHARE PAGE  




You need to log in to post comments