Guitar Tabs, Chords and Lyrics
Server problems seems to be fixed. Chordie has been experiencing problems with songs disappearing. These issues now seems to be fixed, but still verifying the fix. If you find anything strange, please email admin@chordie.com.


Adonde vayas  Elefante

Gtrra. Eléctrica:
 
 1. --0-----0-----0-----0-----|
 2. ----3-----3-----3-----3---|
 3. ------0-----0-----0-----0-|
 4. --------------------------|X4
 5. --------------------------|
 6. --------------------------|

-Gtrra. Acústica:
 
 1. ----------------7h8-8p7-3--10-10-8-8-7-7-5-3-5-|
 2. -7h8-8p7-3-3/5---------------------------------|
 3. -----------------------------------------------|
 4. -----------------------------------------------|
 5. -----------------------------------------------|
 6. -----------------------------------------------|

Palm
Gtrra. Eléctrica: Mute
V
 
 1. ---7---7-5-3-2---5-3-2--0--0---2-3-5-7-|---7-5-3-5---5-3-2--0--0---2---2-------------12-|
 2. -----------------------1--1--3---------|-------------------1--1--3---3---5-3-3/5----12--|
 3. -7---7---------5-----------------------|-7---------5-------------------------------12---|
 4. ---------------------------------------|------------------------------------------------|
 5. ---------------------------------------|------------------------------------------------|
 6. ---------------------------------------|------------------------------------------------|

*Verso:
C[G]uando apareces, [D]desaparece
 
 1. --------------------------------------|
 2. ------------3-----------------3-------|
 3. ------4--4---4-2h4-2----2--/4---4-4p2-|
 4. ----5-----------------0---------------|
 5. --5-----------------------------------|
 6. --------------------------------------|

t[C]odo lo q[G]ue me [Dsus2]daña,
 
 1. --------------------0----0--0--|
 2. ------------3------3--3---3--3-|
 3. -----5-----4------2----2---2---|
 4. ---5------5------0-------------|
 5. -3-------5---------------------|
 6. -------------------------------|

[G]y me parece, [D]que las palabras,
 
 1. ------------------------------------|
 2. ------------------------------------|
 3. -----4-----5p4----------------------|
 4. ---5-----------5-7-------7----------|
 5. -5-----5/7------------5-------------|
 6. ------------------------------------|

ll[C]egan s[G]in pregun[Am]tar,
 
 1. -----------------------------|
 2. -----------3---------1--1--1-|
 3. -----5----4---------2-2--2---|
 4. ---5-----5---------2---2--2--|
 5. -3------5---------0----------|
 6. -----------------------------|

e[C]ste cam[G]ino no t[Am]iene final,
 
 1. -------------------------------------|
 2. ------------3----------1-----1-----1-|
 3. -----5---------------2---------------|
 4. ---5------5--------2-------2-----2---|
 5. -3------5--------0-------0-----0-----|
 6. -------------------------------------|

ll[C]évame ad[G]onde vay[D]as.
 
 1. --------------3-----2---3---5---3-----|
 2. -------------3----3---5---7---5---5-3-|
 3. -----5--------------------------------|
 4. ---5-------5--------------------------|
 5. -3--------5---------------------------|
 6. --------------------------------------|

Cu[G]ando florezca [D]la madrugada,
 
 1. ----------------------0---|
 2. -----3--------------3--3--|
 3. ----4-4h5-4--------2-2--2-|
 4. ---5--------5-5/7-0-------|
 5. --5-----------------------|
 6. --------------------------|

qu[C]iero be[G]sar tu e[Dsus2]spalda,
 
 1. --------------------0----0--0--|
 2. ------------3------3--3---3--3-|
 3. ------5----4------2----2---2---|
 4. ----5-----5------0-------------|
 5. --3------5---------------------|
 6. -------------------------------|

[C]en tu cam[G]ino me qu[Am]iero quedar,
 
 1. --------------------------------------|
 2. -------------3----------1-----1-----1-|
 3. -----5----------------2---------------|
 4. ---5-------5--------2-------2-----2---|
 5. -3-------5--------0-------0-----0-----|
 6. --------------------------------------|

Ll[C]évame ad[G]onde va[D]yas.
 
 1. --------------3----2---3---5---3-----|
 2. -------------3---3---5---7---5---5-3-|
 3. ------5------------------------------|
 4. ----5------5-------------------------|
 5. --3-------5--------------------------|
 6. -------------------------------------|

*Coro: (Arpegear acordes)
[C]Ad[D]onde v[G]ayas, d[F]onde te qu[C]edes
a[G]hí quiero [Dsus2]estar,
[C]ad[D]onde v[G]ayas, d[F]onde la su[C]erte
n[G]os quiera l[Dsus2]levar.
*Solo:
 
 1. ---7br-7-7-7-5p3h5-3-2----3---------3-----3-3-3---3-2-----7-5-3-2-3-|
 2. -----------------------/3---3/5--/3---3/5-------5---------7-5-3-2-3-|
 3. -7-----------------------------------------------------/7-----------|
 4. --------------------------------------------------------------------|
 5. --------------------------------------------------------------------|
 6. --------------------------------------------------------------------|

*Verso:
[G]En el espacio [D]de tu mirada,
 
 1. ---------------7-5-3-2---------------|
 2. -------------------------------------|
 3. -------------7-----------------------|
 4. -------------------------------------|
 5. -------------------------------------|
 6. -------------------------------------|

e[C]ncerra[G]ré mi [Dsus2]alma,
 
 1. ----------------------------------|
 2. ------------------3-3/5-3---------|
 3. -----5-----4---/4---------4-2-0-0-|
 4. ---5-----5------------------------|
 5. -3-----5--------------------------|
 6. ----------------------------------|

[G]y en tu figura, uohh yo yo[D], desafinada,
 
 1. ------------------------------0-----------|
 2. ----------------------------3---3---------|
 3. -----4---4/5-4-2----------2-----------0-0-|
 4. ---5---5---------4------0---------0h2-----|
 5. -5-----------------5----------------------|
 6. ------------------------------------------|

qu[C]iero perd[G]er la [Dsus2]calma,
 
 1. ----------------------7br-7p5-5p3p0-3-3-|
 2. --------------3-------------------------|
 3. ------5------4--------------------------|
 4. ----5-------5---------------------------|
 5. --3--------5----------------------------|
 6. ----------------------------------------|

e[C]ste dest[G]ino no t[Am]iene final,
 
 1. -----------------------------------|
 2. ------------3---------------3-3--5-|
 3. -----5-----4-------------/4--------|
 4. ---5------5------------------------|
 5. -3-------5-------------------------|
 6. -----------------------------------|

ll[C]evame ad[G]onde vay[D]as.
 
 1. --------------3-----2---3---5---3-----|
 2. -------------3----3---5---7---5---5-3-|
 3. ------5-------------------------------|
 4. ----5------5--------------------------|
 5. --3-------5---------------------------|
 6. --------------------------------------|

*Coro: (Arpegear acordes)
riff 1: riff 2: riff 3:
 
 1.-------3-------------------|-----7br-5p3h5-|-/5-3-2-|
 2.---3-5---5-3h5p3-----------|---8-----------|--------|
 3.-4---------------2h4p2-2-0-|-9-------------|--------|
 4.---------------------------|---------------|--------|
 5.---------------------------|---------------|--------|
 6.---------------------------|---------------|--------|

[C]Ad[D]onde v[G]ayas, d[F]onde te qu[C]edes
a[G]hí quiero [Dsus2]estar, (riff 1)
C D G (riff 2) F C
adonde vayas, donde la suerte
n[G]os quiera l[Dsus2]levar, (riff 3)
ad[C]onde vay[D]as.
*Outro:
-Gtrra. Eléctrica:
 
 1. --0-----0-----0-----0-----|
 2. ----3-----3-----3-----3---|
 3. ------0-----0-----0-----0-|Repetir hasta
 4. --------------------------|el Fade Out
 5. --------------------------|
 6. --------------------------|

-Gtrra. Acústica:
 
 1. ----------------7h8-8p7-3--10-10-8-8-7-7-5-3-5-|
 2. -7h8-8p7-3-3/5---------------------------------|
 3. -----------------------------------------------|
 4. -----------------------------------------------|
 5. -----------------------------------------------|
 6. -----------------------------------------------|


Important: The song above is NOT stored on the Chordie server. The original song is hosted at www.guitaretab.com. Chordie works as a search engine and provides on-the-fly formatting. Chordie does not index songs against artists'/composers' will. To remove this song please click here.

Text color:
Chord color:
Chord grids: 
Font size:    
Page size: 

Am C D Dsus2 F G
Rate #1 of 2 versions

Jango Player

Login - add to songbook

SHARE PAGE  



You need to log in to post comments