Guitar Tabs, Chords and Lyrics
Server problems seems to be fixed. Chordie has been experiencing problems with songs disappearing. These issues now seems to be fixed, but still verifying the fix. If you find anything strange, please email admin@chordie.com.


Say Goodnight  Eli Young Band

 
 -------------------------------------------------------------------------------

SAY GOODNIGHT - Eli Young Band
 
 -------------------------------------------------------------------------------

Tabbed by: Michael Baker
E-mail: bigmikey515@yahoo.com
Tuning: 1/2 down
[C] [C/B] [Am7] [F] [G] [D] [Fmaj7]  
 
 e|-----------------------------1-------3---------2------------------|
 B|----1-------1--------1-------1-----------------3--------1---------|
 G|-----------------------------2-----------------2--------2---------|
 D|----2----------------2-------3--------------------------3---------|
 A|----3-------2----------------3-------2----------------------------|
 E|-----------------------------1-------1----------------------------|

[C] [C/B] [C] [C/B]  
The s[C]un still hangin' in the [C/B]sky
And the wo[C]rld is wide awake ou[C/B]tside
And I k[Am7]now there's th[G]ings we need to [D]do
But I just want to d[F]raw t[G]he b[Fmaj7]linds and
Say Goodni[C]ght
Oh w[C/B]on't you let me pull you into[Am7] me
G[C/B]o wherever all these kisses l[D]ead
Turn down the [F]bed[G]
Turn out the l[Fmaj7]ights and
Say[C] goodnight[C/B]
What's the po[C]int of trying to pr[C/B]etend
That we d[C]on't want to just give [C/B]in
Why are [Am7]we holdin' [G]onto this d[D]ay
Let's just let it f[F]ade a[G]way [Fmaj7]and
Say[C] goodnight
Oh w[C/B]on't you let me pull you into [Am7]me
Go[C/B] wherever all these kisses l[D]ead
Turn down the b[F]ed[G]
Turn out the l[Fmaj7]ights and
Say [C]goodnight
[C] [C/B] [C] [C/B]  
Baby I don't w[F]ant [G]to [Fmaj7]wait
[C]I just want to h[F]ear y[G]ou
[Fmaj7]Say Goodn[C]ight
Oh w[C/B]on't you let me pull you into [Am7]me
Go[C/B] wherever all these kisses [D]lead
Turn down the [F]bed[G]
Turn out the l[Fmaj7]ights and
Sa[C]y goodnight[C/B]
Sa[C]y goodnight[C/B]
[C] [C/B] [C] [C/B] 

Important: The song above is NOT stored on the Chordie server. The original song is hosted at www.guitaretab.com. Chordie works as a search engine and provides on-the-fly formatting. Chordie does not index songs against artists'/composers' will. To remove this song please click here.

Text color:
Chord color:
Chord grids: 
Font size:    
Page size: 

Am7 C C/B D F Fmaj7 G
Rate #1 of 4 versions

Jango Player

Login - add to songbook

SHARE PAGE  



You need to log in to post comments