Guitar Tabs, Chords and Lyrics
Major upgrade!! After one year development the new version of Chordie is now online! Please give feedback.


Waltz #2 (XO)   Elliott Smith

 
 |------------|------------|------------|------------|
 |------------|------------|------------|------------|
 |------------|------------|------------|------------|
 |------------|------------|------------|------------|
 |------------|------------|------------|------------|
 |------------|------------|------------|------------|

 


 


 INTRO


 


 [1] [2] [3] [1] [2] [3] [1] [2] [3] [1] [2] [3]  

 
 |------------|------------|------------|------0-0-0-|
 |------------|------------|------------|------1-1-1-|
 |------------|------------|------------|------2-2-2-|
 |------------|------------|------------|------2-2-2-|
 |------------|------------|------------|------0-0-0-|
 |------------|------------|------------|------------|

 


 Drum intro


 


 (I´m not gonna go into all the details of strumming etc)


 [1] [2] [3] [1] [2] [3] [1] [2] [3] [1] [2] [3]  

 
 |0-----------|0-----------|0-----------|0-----------|
 |1-----------|1-----------|1-----------|1-----------|
 |2-----------|2-----------|2-----------|2-----------|
 |2-----------|2-----------|2-----------|2-----------|
 |0-----------|0-----------|0-----------|0-----------|
 |------------|------------|------------|------------|

 


 


 [1] [2] [3] [1] [2] [3] [1] [2] [3] [1] [2] [3]  

 
 |------------|0-----------|1-----------|0-----------|
 |---------0-1|1-----------|1-----------|1-----------|
 |2-----------|0-----------|2-----------|0-----------|
 |2-----------|2-----------|3-----------|2-----------|
 |0-----------|x-----------|3-----------|3-----------|
 |------------|3-----------|1-----------|0-----------|

 


 


 [1] [2] [3] [1] [2] [3] [1] [2] [3] [1] [2] [3]  

 
 |1-----------|0-----------|1-----------|0-----------|
 |3-----------|1-----------|0-----------|1-----------|
 |2--------0-2|0-----------|0-----------|0-----------|
 |3-----------|2-----------|0-----2-0---|2-----------|
 |x-----------|3-----------|x-----------|3-------2---|
 |1-----------|0-----------|3-----------|------------|

 


 


 [1] [2] [3] [1] [2] [3] [1] [2] [3] [1] [2] [3]  

 
 |------------|0-----------|1-----------|0-----------|
 |---------0-1|1-----------|1-----------|1-----------|
 |2-----------|0-----------|2-----------|0-----------|
 |2-----------|2-----------|3-----------|2-----------|
 |0-----------|x-----------|3-----------|3-----------|
 |------------|3-----------|1-----------|0-----------|

 


 


 [1] [2] [3] [1] [2] [3] [1] [2] [3]  

 
 |1-----------|0-----------|1-----------|
 |3-----------|1-----------|0-----------|
 |2--------0-2|0-----------|0-----------|
 |3-----------|2-----------|0-----2-0---|
 |x-----------|3-----------|x-----------|
 |1-----------|0-----------|3-----------|

 


 


 [1] [2] [3] [1] [2] [3] [1] [2] [3] [1] [2] [3]  

 
 |0-----------|------------|------0-0-0-|0-----------|
 |1-----------|------------|------1-1-1-|1-----------|
 |0-----------|------------|------0-0-0-|0-----------|
 |2-----------|------------|------2-2-2-|2-----------|
 |3-----------|--------2---|3-----3-3-3-|3-----------|
 |------------|3-----------|------------|------0-3-4-|

 


 


 VERSE


 


 First the mic, then a half cigarette


 [1] [2] [3] [1] [2] [3] [1] [2] [3] [1] [2] [3]  

 
 |0-----------|0-----------|0-----------|0-----------|
 |1-----------|1-----------|1-----------|1-----------|
 |2-----------|2-----------|0-----------|0-----------|
 |2-----------|2-----------|2-----------|2-----------|
 |0-----------|0-----------|3-----------|3-----------|
 |------------|------------|------------|----3---2---|

 


 


 Singing Cathy´s Clown That´s the


 [1] [2] [3] [1] [2] [3] [1] [2] [3] [1] [2] [3]  

 
 |1-----------|2-----------|1-----------|1-----------|
 |1-----------|1-----------|0-----------|0-----------|
 |2-----------|2-----------|0-----------|0-----------|
 |3-----------|0-----------|0-----------|0-----------|
 |3-----------|x-----------|x-----------|x-----------|
 |1-----------|2-----------|3-----------|3-----------|

 


 


 Man she´s married to now


 [1] [2] [3] [1] [2] [3] [1] [2] [3] [1] [2] [3]  

 
 |1-----------|------------|0-----------|------------|
 |3-----------|------------|1-----------|------------|
 |2-----------|------------|2-----------|------------|
 |0-----------|------------|2-----------|------------|
 |------------|(0)---------|0-----------|------------|
 |------------|------------|------------|(0)---------|

 


 


 That´s the girl that he takes around town,


 [1] [2] [3] [1] [2] [3] [1] [2] [3] [1] [2] [3]  

 
 |0-----------|0-----------|0-----------|0-----------|
 |0-----------|0-----------|0-----------|0-----------|
 |2-----------|2-----------|1-----------|1-----------|
 |0-----------|0-----------|2-----------|2-----------|
 |2-----------|2-----------|2-----------|2-----------|
 |------------|------------|0-----------|0-----------|

 


 


 She appears composed, so she is I suppose


 [1] [2] [3] [1] [2] [3] [1] [2] [3] [1] [2] [3]  

 
 |0-----------|0-----------|0-----------|0-----------|
 |1-----------|1-----------|1-----------|1-----------|
 |2-----------|2-----------|0-----------|0-----------|
 |2-----------|2-----------|2-----------|2-----------|
 |0-----------|0-----------|3-----------|x-----------|
 |------------|------------|------------|3---3---2---|

 


 


 Who can really tell ? She


 [1] [2] [3] [1] [2] [3] [1] [2] [3] [1] [2] [3]  

 
 |1-----------|2-----------|1-----------|1-----------|
 |1-----------|1-----------|0-----------|0-----------|
 |2-----------|2-----------|0-----------|0-----------|
 |3-----------|0-----------|0-----------|0-----------|
 |3-----------|x-----------|x-----------|x-----------|
 |1-----------|2-----------|3-----------|3-----------|

 


 


 Shows no emotion at all


 [1] [2] [3] [1] [2] [3] [1] [2] [3] [1] [2] [3]  

 
 |1-----------|------------|0-----------|------------|
 |3-----------|------------|1-----------|------------|
 |2-----------|------------|2-----------|------------|
 |0-----------|------------|2-----------|------------|
 |------------|(0)---------|0-----------|------------|
 |------------|------------|------------|(0)---------|

 


 


 Stares into space like a dead china doll


 [1] [2] [3] [1] [2] [3] [1] [2] [3] [1] [2] [3]  

 
 |------------|------------|0-----------|0-----------|
 |3-----------|3-----------|3-----------|3-----------|
 |2-----------|2-----------|1-----------|1-----------|
 |3-----------|3-----------|2-----------|2-----------|
 |2-----------|2-----------|2-----------|2-----------|
 |------------|------------|0-----------|0-----------|

 


 


 CHORUS


 


 I´m never gonna know you know


 [1] [2] [3] [1] [2] [3] [1] [2] [3] [1] [2] [3]  

 
 |------------|0-----------|1-----------|0-----------| Yeah I know it´s
 |---------0-1|1-----------|1-----------|1-----------| different and more
 |2-----------|0-----------|2-----------|0-----------| complicated here
 |2-----------|2-----------|3-----------|2-----------| but whatever
 |0-----------|x-----------|3-----------|3-----------|
 |------------|3-----------|1-----------|0-----------|

 


 


 But I´m gonna love you anyhow


 [1] [2] [3] [1] [2] [3] [1] [2] [3] [1] [2] [3]  

 
 |1-----------|0-----------|1-----------|0-----------|
 |3-----------|1-----------|0-----------|1-----------|
 |2--------0-2|0-----------|0-----------|0-----------|
 |3-----------|2-----------|0-----2-0---|2-----------|
 |x-----------|3-----------|x-----------|3-------2---|
 |1-----------|0-----------|3-----------|------------|

 


 


 [1] [2] [3] [1] [2] [3] [1] [2] [3] [1] [2] [3]  

 
 |------------|0-----------|1-----------|0-----------|
 |---------0-1|1-----------|1-----------|1-----------|
 |2-----------|0-----------|2-----------|0-----------|
 |2-----------|2-----------|3-----------|2-----------|
 |0-----------|x-----------|3-----------|3-----------|
 |------------|3-----------|1-----------|0-----------|

 


 


 [1] [2] [3] [1] [2] [3] [1] [2] [3]  

 
 |1-----------|0-----------|1-----------|
 |3-----------|1-----------|0-----------|
 |2--------0-2|0-----------|0-----------|
 |3-----------|2-----------|0-----2-0---|
 |x-----------|3-----------|x-----------|
 |1-----------|0-----------|3-----------|

 


 


 [1] [2] [3] [1] [2] [3] [1] [2] [3] [1] [2] [3]  

 
 |0-----------|------------|------0-0-0-|0-----------|
 |1-----------|------------|------1-1-1-|1-----------|
 |0-----------|------------|------0-0-0-|0-----------|
 |2-----------|------------|------2-2-2-|2-----------|
 |3-----------|--------2---|3-----3-3-3-|3-----------|
 |------------|3-----------|------------|------0-3-4-|

 


 


 VERSE GUITAR REPEATS


 


 Now she´s done and they´re calling someone


 Such a familiar name


 I´m so glad that my memory´s remote


 Cos I´m doing just fine hour to hour, note to note


 Here it is, the revenge to the tune


 "You´re no good,


 You´re no good, you´re no good, you´re no good"


 Can´t you tell that it´s well understood?


 


 CHORUS


 


 I´m never gonna know you know


 [1] [2] [3] [1] [2] [3] [1] [2] [3] [1] [2] [3]  

 
 |------------|0-----------|1-----------|0-----------|
 |---------0-1|1-----------|1-----------|1-----------|
 |2-----------|0-----------|2-----------|0-----------|
 |2-----------|2-----------|3-----------|2-----------|
 |0-----------|x-----------|3-----------|3-----------|
 |------------|3-----------|1-----------|0-----------|

 


 


 But I´m gonna love you anyhow


 [1] [2] [3] [1] [2] [3] [1] [2] [3] [1] [2] [3]  

 
 |1-----------|0-----------|1-----------|0-----------|
 |3-----------|1-----------|0-----------|1-----------|
 |2--------0-2|0-----------|0-----------|0-----------|
 |3-----------|2-----------|0-----2-0---|2-----------|
 |x-----------|3-----------|x-----------|3-------2---|
 |1-----------|0-----------|3-----------|------------|

 


 


 [1] [2] [3] [1] [2] [3] [1] [2] [3] [1] [2] [3]  

 
 |------------|0-----------|1-----------|0-----------|
 |---------0-1|1-----------|1-----------|1-----------|
 |2-----------|0-----------|2-----------|0-----------|
 |2-----------|2-----------|3-----------|2-----------|
 |0-----------|x-----------|3-----------|3-----------|
 |------------|3-----------|1-----------|0-----------|

 


 


 [1] [2] [3] [1] [2] [3] [1] [2] [3] [1] [2] [3]  

 
 |1-----------|0-----------|1-----------|0-----------|
 |3-----------|1-----------|0-----------|1-----------|
 |2--------0-2|0-----------|0-----------|0-----------|
 |3-----------|2-----------|0-----2-0---|2-----------|
 |x-----------|3-----------|x-----------|3-------4---|
 |1-----------|0-----------|3-----------|------------|

 


 


 THING


 


 I´m here today and expected to stay


 [1] [2] [3] [1] [2] [3] [1] [2] [3] [1] [2] [3]  

 
 |1-----------|1-----------|1-----------|1-----------|
 |3-----------|3-----------|1-----------|1-----------|
 |2-----------|2-----------|2-----------|2-----------|
 |0-----------|0-----------|3-----------|3-----------|
 |------------|------------|3-----------|3-----------|
 |------------|------------|1-----------|1-----------|

 


 


 On and on and on


 [1] [2] [3] [1] [2] [3] [1] [2] [3] [1] [2] [3]  

 
 |0-----------|0-----------|0-----------|0-----------|
 |1-----------|0-----------|1-----------|1-----------|
 |0-----------|0-----------|2-----------|2-----------|
 |2-----------|0-----------|2-----------|2-----------|
 |3-----------|2-----------|0-----------|0-----------|
 |------------|------------|------------|0-----------|

 


 


 [1] [2] [3] [1] [2] [3] [1] [2] [3]  

 
 |1-----------|1-----------|1___________| bla bla bla
 |3-----------|3-----------|1___________|
 |2-----------|2-----------|2___________|
 |0-----------|0-----------|3___________|
 |------------|------------|3___________|
 |------------|------------|1___________|


Important: The song above is NOT stored on the Chordie server. The original song is hosted at www.guitaretab.com. Chordie works as a search engine and provides on-the-fly formatting. Chordie does not index songs against artists'/composers' will. To remove this song please click here.

This song is displayed as text-only. Transposing and tuning is only available for chordpro-songs.
Rate #1 of 3 versions

Jango Player

Login - add to songbook

SHARE PAGE  




You need to log in to post comments