Guitar Tabs, Chords and Lyrics
Server problems seems to be fixed. Chordie has been experiencing problems with songs disappearing. These issues now seems to be fixed, but still verifying the fix. If you find anything strange, please email admin@chordie.com.


A Distorted Reality Is Now a Necessity to Be Free  Elliott Smith

A Distorted Reality Is Now A Necessity To Be Free - Elliott Smith
Starting riff
|-3-|
E E Q S S S E E E
 
 E||----------------------------|
 B||----------------------------|
 G||----------------------------|
 D||--------6----4-6-4----4-----|
 A||-------------------6-----4--|
 E||--7--4----------------------|

^ ^ ^ ^
Bend about 1/4 - 1/2 the notes with (^) and add some vibratto, it sounds better.
[E]I'm floating in a [B]black balloon
[C#m]O.D. on Eas[(D#)]ter a[E]fternoon
[G#m]My mam[F#]a told me "[E]Baby stay [B]clean
There's no[C#m] in-betwee[(D#)]n"[E]
[G#m]And all you ladies an[F#]d you g[B]entlemen
[C#m]Between is all you've[(D#)] ever[E] seen or been
[G#m]Fit po[F#]orly and arra[E]nge the sight
[B]Doll it up in v[C#m]irgin whit[(D#)]e[E]
[G#m]You dis[F#]appoint [E]me, you [C#m]people raking in on the [D#]world
[E]The de[F#]vil's [Fm]script s[E]ells you[B] the he[C#m]art of a [G#m]blackbird[G]
[E]Shine on me b[B]aby, 'cause it's [C#m]raining in my [E]heart
[G#m] [F#] [E] [B]  
 
 E||--16----14---------------------|--16----14---------------------|
 B||--------------14pbr------------|--------------14pbr------------|
 G||-----------------------16--13--|-----------------------16--13--|
 D||-------------------------------|-------------------------------|
 A||-------------------------------|-------------------------------|
 E||-------------------------------|-------------------------------|

[C#m] [E]  
 
 |--16----------------|--L--------L-----------16--||
 |--------------------|----------------14s-16-----||
 |--------------------|---------------------------||
 |--------------------|---------------------------||
 |--------------------|---------------------------||
 |--------------------|---------------------------||

[G#m]Sun's rising on[F#] a ch[B]opping glare
[C#m]Rain dropping aci[(D#)]d boug[E]ht up in the air
[G#m]A dist[F#]orted r[E]eality's [B]now a [C#m]necessity [E]... to be free
[G#m]It's so[F#] disapp[E]ointing
[C#m]First I put it all down to l[D#]uck
[E]God [F#]knows w[Fm]hy m[E]y c[B]ountry d[C#m]on't give a[G#m] fuck
[G]Fuck
[G] [B] [C#]  
[G] [B] [F#] [G#m]  
[G#m]Shine on me b[G]aby, 'caus[B]e it's raining in my[C#] heart
[G]Shine on me b[B]aby, 'cause[F#] it's raining in my[G#m] heart
[G] [B] [C#]  
[G] [B] [F#] [G#m] 

Important: The song above is NOT stored on the Chordie server. The original song is hosted at www.guitaretab.com. Chordie works as a search engine and provides on-the-fly formatting. Chordie does not index songs against artists'/composers' will. To remove this song please click here.

Text color:
Chord color:
Chord grids: 
Font size:    
Page size: 

B C# C#m D# E F# Fm G G#m
Rate #1 of 8 versions

Login - add to songbook

SHARE PAGE  




You need to log in to post comments