Guitar Tabs, Chords and Lyrics
Major upgrade!! After one year development the new version of Chordie is now online! Please give feedback.


Everything Reminds Me of Her  Elliott Smith

Tuning: 1 whole step down (D-G-C-F-A-D)
Tab Key:
b : bend
r : release
p : pull
s : slide
_______________________________________________________________________
Intro:
FDom7 CMaj
Strummed Strummed
 
 e-3br-1-----1-----|-0-0-0-0-|--------------------|-0-0-0-0-----------|
 b-------2-0-------|-1-1-1-1-|-1-1-1-3-4-5-5-5-4-3|-1-1-1-1-----------|
 G----------------0|-2-2-2-2-|-2-2----------------|-0-0-0-0-----------|
 D------------0-2--|-3-3-3-3-|-3-3-2-3-4-5-5-5-4-3|-2-2-2-2-----------|
 A-----------------|---------|--------------------|-3-3-3-3-----------|
 E-----------------|---------|--------------------|-x-x-x-x-1-1-2-2-3-|

[CMaj]Strum [C/G] [CMaj]
 
 e-0-0-----------0-0-3br-1-----1------|-0-0-0-----|---0-----0-----0-|
 b-1-1-----------1-1-------2-0--------|-1-1-1-----|---1-----1-----1-|
 G-0-0-----------0-0----------------0-|-2-2-2-----|---2-----0-----0-|
 D-2-2-----------2-2------------0-2---|-3-3-3-3-2-|-0-0-0h2-2-2p0-2-|
 A-3-3--------------------------------|-----------|---------------3-|
 E-x-x-1-1-2-2-3-3-3------------------|-----------|---------------x-|

[Amin]  
 
 e------------|
 b-------0-1--|
 G-----2----0-|
 D---2--------|
 A-0----------|
 E------------|

______________________________________________________________________
Lyrics:
FDom7 CMaj Fill 2a
I never really had a problem because of leaving
Amin B/G FDom7 C Fill 2b
But everything reminds me of her this evening
FDom7 C Fill 3
So if I seem a little out of it sorry
FDom7 Dmin
Why.... should I lie?
Amin B/G FDom7 DMaj FDom7 Fill 4
Everything reminds me of her
FDom7 CMaj Fill 2a
The spin of the earth impaled a silhouette of the sun on a steeple
Amin B/G FDom7 CMaj Fill 2b
And I gotta hear the same sermon all the time now from you people
FDom7 CMaj Fill 3
Why are you staring into outer-space... crying?
FDom7 Dmin
Just because you came across it and lost it?
Amin B/G FDom7
Everything reminds me of her
Amin B/G FDom7
Everything reminds me of her
Amin B/G FDom7
Everything reminds me of her
Fill 5
_____________________________________________________________________
Fills:
Fill 2a
___________
| |
 
 e-------0----|
 b-------1----|
 G-------0----|
 D-------2----|
 A---2-3-3-3-2|
 E-3-----x----|

Fill 2b
_________________________
| |
 
 e-------0--3br-1-----1-----|
 b-------1--------2-0-------|
 G-------0-----------------0|
 D-------2-------------0-2--|
 A---2-3-3------------------|
 E-3------------------------|

Fill 3 Fill 4
_____________ ____________________________________________
| | | |
[CMaj] [A7]  
 
 e-------0-0-s7-5-| e--------------|--------------0---------0-s7-s5-|
 b-------2-2-s7-5-| b--------------|--------------1---------2-s7----|
 G-------2-0------| G-2-0----------|--------------0---------0-------|
 D-------2-2------| D-----3-2-0----|---0-2-2-2-0--2---------2-------|
 A-3-2-0-0-0------| A-----------3-3|-3----------3-3---3-2-0-0-------|
 E----------------| E--------------|--------------x-3---------------|

Fill 5
_______________________________
| |
[Dmin] [Amin]  
 
 e-----------1-1-|---------------0-|
 b-----------3-3-|---------------1-|
 G-2-0-------2-2-|-2-0-----------2-|
 D-----3-2-0-0-0-|-----3-2-0-----3-|
 A-----------x-x-|-----------3-2-0-|
 E-----------x-x-|---------------x-|

________________________________________________________________________
Chords:
FDom7 : Xx3210
CMaj : X32010
Dmin : xx0321
Amin : x02210
B/G : X20210
A : x02220
A7 : x02020

Important: The song above is NOT stored on the Chordie server. The original song is hosted at www.guitaretab.com. Chordie works as a search engine and provides on-the-fly formatting. Chordie does not index songs against artists'/composers' will. To remove this song please click here.

Text color:
Chord color:
Chord grids: 
Font size:    
Page size: 

A7 Amin C/G Cmaj Dmin
Rate #3 of 5 versions

Login - add to songbook

SHARE PAGE  




You need to log in to post comments