Guitar Tabs, Chords and Lyrics
Server problems seems to be fixed. Chordie has been experiencing problems with songs disappearing. These issues now seems to be fixed, but still verifying the fix. If you find anything strange, please email admin@chordie.com.


Against the Gravity  Elvis Jackson

=============================================================================
INTRO (palm muted):
[F#m] [F#m] [D]  
 
 e|-------|---------------------------------------------------------------------------|
 B|-------|---------------------------------------------------------------------------|
 G|-------|---------------------------------------------------------------------------|
 D|-4-----|---------------------------------------7-77777--7-77777--7-77777--7-77777--|
 A|-4-----|-4-4-44444--4-44444--4-44444--4-44444--5-55555--5-55555--5-55555--5-55555--|
 E|-2-----|-2-2-22222--2-22222--2-22222--2-22222--------------------------------------|

[F#m] [D] [E]  
 
 e|-------------------------------------------------------------------------|
 B|-------------------------------------------------------------------------|
 G|----------------------------------------------------------------7---9----|
 D|-------------------------------------7-77777--7-77777--7-77777--7---9----|
 A|-4-44444--4-44444--4-44444--4-44444--5-55555--5-55555--5-55555--5---7----|
 E|-2-22222--2-22222--2-22222--2-22222--------------------------------------|

Now, it's unmuted:
[F#m] [D]  
 
 e|-----------------------------------------------------------|
 B|---------2-----2-3-5-3----------------2-----2-5-3-2--------|
 G|-------2-----2---------2------------2-----2---------2------|
 D|-4---4------------------------4---4------------------------|
 A|-----------------------------------------------------------|
 E|-----------------------------------------------------------|

VERSE:
[F#m]It's taking me over
you're wasting your t[D]ime
in stealing my vision
[F#m]I got my direction
I search for the l[D]ight
I made my decision
[F#m]I wanna find some kind of a n[D]ew dimension
[F#m]don't wanna blind myself
with a n[D]ew deception
Muted again:
[F#m] [D]  
 
 e|-------------------------------------------------------------------------|
 B|-------------------------------------------------------------------------|
 G|-------------------------------------------------------------------------| -- 3x
 D|-------------------------------------7-77777--7-77777--7-77777--7-77777--|
 A|-4-44444--4-44444--4-44444--4-44444--5-55555--5-55555--5-55555--5-55555--|
 E|-2-22222--2-22222--2-22222--2-22222--------------------------------------|

[F#m] [D]  
 
 e|----------------------------------------------------|
 B|----------------------------------------------------|
 G|-------------------------------------7--------------|
 D|-------------------------------------7--------------|
 A|-4-44444--4-44444--4-44444--4-44444--5--------------|
 E|-2-22222--2-22222--2-22222--2-22222-----------------|

CHORUS:
Cuz I don't w[F#m]anna know
how far you w[D]ant me to go
y[Bm]ou can't change my s[E]oul
I keep p[F#m]ushing back against the gr[D]avity
j[Bm]ust dont you f[E]ollow me
p[F#m]lease s[D]tay o[Bm]ut[E]
d[F#m]on't w[D]alk a[Bm]round[E]
VERSE:
[F#m]I don't need you by my side
[D]to realize what is deep inside
[F#m]don't need your superv[D]ise
[F#m]I wanna find some kind of a n[D]ew dimension
[F#m]don't wanna blind myself
with a n[D]ew deception
Muted:
[F#m] [D]  
 
 e|-------------------------------------------------------------------------|
 B|-------------------------------------------------------------------------|
 G|-------------------------------------------------------------------------| -- 2x
 D|-------------------------------------7-77777--7-77777--7-77777--7-77777--|
 A|-4-44444--4-44444--4-44444--4-44444--5-55555--5-55555--5-55555--5-55555--|
 E|-2-22222--2-22222--2-22222--2-22222--------------------------------------|

[F#m] [D]  
 
 e|-------------------------------------------------------------|
 B|-------------------------------------------------------------|
 G|-------------------------------------7--7--7--7--7-----------|
 D|-------------------------------------7--7--7--7--7--6--6--7\-|
 A|-4-44444--4-44444--4-44444--4-44444--5--5--5--5--5--6--6--7\-|
 E|-2-22222--2-22222--2-22222--2-22222-----------------4--4--5\-|

[F#m] [D]  
 
 e|----------------------------------------------------|
 B|----------------------------------------------------|
 G|-------------------------------------7--------------|
 D|-------------------------------------7--------------|
 A|-4-44444--4-44444--4-44444--4-44444--5--------------|
 E|-2-22222--2-22222--2-22222--2-22222-----------------|

CHORUS:
Cuz I don't w[F#m]anna know
how far you w[D]ant me to go
y[Bm]ou can't change my s[E]oul
I keep p[F#m]ushing back against the gr[D]avity
j[Bm]ust dont you f[E]ollow me
p[F#m]lease s[D]tay o[Bm]ut[E]
d[F#m]on't w[D]alk a[Bm]round[E]
Then it goes like this (unmuted):
[F#m] [E] [D] [A] [C#m] [F#m] [E] [D] [C#m] [E]  
 
 e|-----------------------------------------------------------------------------------|
 B|-----10--------9--------7---------5----------10--------9--------7--------------7---|
 G|--------11-------9--------7-----6-6-------------11-------9--------7--6----7/9-9----|
 D|--11---------9-------7---------7--6-------11---------9-------7-------6-------9-----|
 A|-9----------7-------5---------7----------9----------7-------5--------4-------------|
 E|-----------------------------5-----------------------------------------------------|

[F#m] [E] [D] [A] [C#m] [F#m] [E] [D] [C#m]  
 
 e|-----------------------------------------------------------------------------|
 B|-----10--------9--------7---------5----------10--------9--------7------------|
 G|--------11-------9--------7-----6-6-------------11-------9--------7--6-------|
 D|--11---------9-------7---------7--6-------11---------9-------7-------6-------|
 A|-9----------7-------5---------7----------9----------7-------5--------4-------|
 E|-----------------------------5-----------------------------------------------|

CHORUS:
Cuz I don't w[F#m]anna know
how far you w[D]ant me to go
y[Bm]ou can't change my s[E]oul
I keep p[F#m]ushing back against the gr[D]avity
j[Bm]ust dont you f[E]ollow me
p[F#m]lease s[D]tay o[Bm]ut[E]
d[F#m]on't w[D]alk a[Bm]round[E]
p[F#m]lease s[D]tay o[Bm]ut[E]
d[F#m]on't w[D]alk a[Bm]round[E] [F#m]

Important: The song above is NOT stored on the Chordie server. The original song is hosted at www.guitaretab.com. Chordie works as a search engine and provides on-the-fly formatting. Chordie does not index songs against artists'/composers' will. To remove this song please click here.

Text color:
Chord color:
Chord grids: 
Font size:    
Page size: 

A Bm C#m D E F#m
Rate #1 of 2 versions

Login - add to songbook

SHARE PAGE  



You need to log in to post comments