Guitar Tabs, Chords and Lyrics
Server problems seems to be fixed. Chordie has been experiencing problems with songs disappearing. These issues now seems to be fixed, but still verifying the fix. If you find anything strange, please email admin@chordie.com.


We're Gonna Move  Elvis Presley

 
 ---------------------------------------------------------------------------

We're Gonna Move ? Elvis Presley
 
 ---------------------------------------------------------------------------

Tabbed by: maguri
Tuning: Standard
A great early RCA recording.
I just tabbed out the intro and first verse as the pattern is more or less the same throughout
the song. The bass is played with the thumb, the chords are hit short and sharp on the off beat
and dampened hard before the next bass note. Enjoy!
Elvis Presley
We're Gonna Move (1956)
(Presley/Matson)
Now on: "The Complete 50's Masters (Disc 2)"
Intro
[E] [A] [E] [A]  
 
 e|--0---0---------|--0---0---------|
 B|--0---0---2-2-2-|--0---0---2-2-2-|
 G|--1---1---2-2-2-|--1---1---2-2-2-|
 D|--2---2---2-2-2-|--2---2---2-2-2-|
 A|--------0-------|--------0-------|
 E|0---4-----------|0---4-----------|

Verse
[E] [A] [E] [A] [E]  
 
 e|--0---0---------|--0---0---------|----------------|--0---0---------|
 B|--0---0---2---2-|--0---0---------|--2---2---2---2-|--0---0---------|
 G|--1---1---2---2-|--1---1---------|--2---2---2---2-|--1---1---------|
 D|--2---2---2---2-|--2---2---------|--2---2-2-2---2-|--2---2---------|
 A|--------0---4---|--------2-------|0---4-------4---|--------2-0-----|
 E|0---4-----------|0---4-----0-2-4-|----------------|0---4-------4-2-|

[E] [A] [E] [A] [A/B] [E] [A] [A/B]  
 
 e|--0---0---------|--0---0---------|----------------|--0---0---------|
 B|--0---0---2---2-|--0---0---------|--2---2---2---2-|--1---1---2---2-|
 G|--1---1---2---2-|--1---1---------|--2---2---2---2-|--2---2---2---2-|
 D|--2---2---2---2-|--2---2---------|--2---2---2---2-|--2---2---2---2-|
 A|--------0---4---|--------2-------|0---0---2---2---|--------0---2---|
 E|0---4-----------|0---4-----0-2-4-|----------------|0---4-----------|
 ---------------------------------------------------------------------------

Intro
| E A | E A | E A E
(Intro) Well there's a leak in this old building
Yes, there's a [A]leak in this old [E]building
Well there's a [E]leak [A]in this old [E]building
We're gonna [A]move to a [A/B]better [E]home
[A] We [A/B]got no [E]pane in this old window'
We got no [A]pane in this old [E]window'
[A/B] We got no [E]pane in this old window'
We're gonna [A]move to a [A/B]better [E]home
Well, there's a [A]hole in the roof where the [E]rain pours in
A E (stop)
A hole in the floor where it runs right out again
[A/B]Well, there's a [E]leak i[A]n this old [E]building
Well, there's a [A]leak in this old [E]building
[A/B]Well, there's a [E]leak [A]in this old [E]building
We're gonna [A]move to a [A/B]better [E]home
[A/B]Well, there's a [E]crack [A]across the [E]ceiling
Yes, there's a [A]crack across the [E]ceiling
[A/B]Well, there's a [E]crack [A]across the [E]ceiling
We're gonna [A]find us a [A/B]better [E]home
[A/B]Well, we've got a [E]stove [A]without a [E]chimney
We've got a sto[A]ve without a chim[E]ney
[A/B]What good's a st[E]ove with[A]out a [E]chimney
We're gonna [A]move to a [A/B]better [E]home
Pulling [A]down window shades is no [E]use at all
A E (stop)
The kids and the neighbor can peep right through the wall
[A/B]Well there's a l[E]eak [A]in this old [E]building
Well there's a [A]leak in this old [E]building
[A/B]Well there's a l[E]eak i[A]n this old [E]building
We're gonna [A]move to a [A/B]better, [A]move to a [A/B]better
[A]Move to a [A/B]better [E] home

Important: The song above is NOT stored on the Chordie server. The original song is hosted at www.guitaretab.com. Chordie works as a search engine and provides on-the-fly formatting. Chordie does not index songs against artists'/composers' will. To remove this song please click here.

Text color:
Chord color:
Chord grids: 
Font size:    
Page size: 

A A/B E
Rate #1 of 2 versions

Login - add to songbook

SHARE PAGE  




You need to log in to post comments