Guitar Tabs, Chords and Lyrics
Major upgrade!! After one year development the new version of Chordie is now online! Please give feedback.


Pa' morirse de amor  Ely Guerra

(Intro)
 
 e|------------------------------------------------|
 B|------------------------------------------------|
 G|----5----7--5-----5-----7--5------5----7--------|x2
 D|-5----5---------5----5----------5----5----------|
 A|------------------------------------------------|
 E|------------------------------------------------|

[Bb]Duro pega que llega alto
que acaricia fuerte
que obliga al llanto, [Gm]pa´ morirse de amor.
[Bb]Duro pega tu alma con la mía
por que la alegría viene de años,
[Gm]pa´ morirse d[F]e amor,
pa´ morirse d[Bb]e amor.
(Chorus) x2
Quién si no [C]yo, para abrazar tus alegrías
quién si no [G]tú, para abrazar mis alegrías,
quién si no [C]yo, para lamer posibles heridas
quién si no [G]tú, para cuidarme noche y día.
[Bb]Duro pega que en el alma
va naciendo el fuego casi de inmediato,
[Gm]pa´ morirse de amor.
[Bb]Duro pega por que las caricias
suelen ser siempre lo más buscado,
[Gm]pa´ morirse d[F]e amor,
pa´ morirse d[Bb]e amor.
(Chorus) x2
Quién si no [C]yo, para abrazar tus alegrías
quién si no [G]tú, para abrazar mis alegrías,
quién si no [C]yo, para lamer posibles heridas
quién si no [G]tú, para cuidarme noche y día.
*Esta parte va sobre los versos, se repite
continuamente, solo escucha detenidamente,y
en el coro hay una parte en donde lo acompaña
el intro
 
 e|------------------------------------------------|
 B|------------------------------------------------|
 G|---5-5-5-5-5-7---5-5-5-5-5-7----5-5-5-5-5-7-----|
 D|--5-5-5-5-5-----5-5-5-5-5------5-5-5-5-5--------|
 A|------------------------------------------------|
 E|------------------------------------------------|

Bueno eso es todo, dudas,comentarios,sugerencias
intercambio de material, ahi stamos...

Important: The song above is NOT stored on the Chordie server. The original song is hosted at www.guitaretab.com. Chordie works as a search engine and provides on-the-fly formatting. Chordie does not index songs against artists'/composers' will. To remove this song please click here.

Text color:
Chord color:
Chord grids: 
Font size:    
Page size: 

Bb C F G Gm
Rate #1 of 2 versions

Login - add to songbook

SHARE PAGE  



You need to log in to post comments