Guitar Tabs, Chords and Lyrics
Server problems seems to be fixed. Chordie has been experiencing problems with songs disappearing. These issues now seems to be fixed, but still verifying the fix. If you find anything strange, please email admin@chordie.com.


After the Devil Beats His Wife  Emery

Tabbed by:EKcend429
Email:Ekcend@yahoo.com
Emery
After The Devil Beats His Wife
Emery
I'm Only A Man
I think i got most of it correct
Tuning:Drop Db(C#-G#-C#-F#-A#-D#)
Intro: (you wana swim)
 
 e|------------------------------------------------|
 B|------------------------------------------------|
 G|---8-8-88------5-5-55----5555555555-------------|
 D|---6-6-66--X2--3-3-33----5555555555-------------|
 A|---6-6-66------3-3-33----3333333333-------------|
 E|---6-6-66------3-3-33---------------------------|

Verse 1: (the high notes on acoustic are from
the same chords just 3-4 octaves highr)
[C] [G] [G#] [D#]  
[F] [B] [C] [Bb]  
(the waters too deep)
[F] [D#] [D] [G]  
Chorus:
 
 e|----------------------------------------------------------------------|
 B|----------------------------------------------------------------------|
 G|----------------------------------------------------------------------|
 D|----------------------5-55555-----------------------------------------|
 A|----6-666-6--3-333-3--3-33333---6-666-6----88888-6666-5-6-5-3---------|
 E|----6-666-6--3-333-3------------6-666-6-------------------------------|
 e|-------------------------------------------------------------------|
 B|-------------------------------------------------------------------|
 G|-------------------------------------------------------------------|
 D|----------------------5-55555--------------------------------------|
 A|----6-666-6--3-333-3--3-33333--6-666-666-666-8-10--5-5555555555----|
 E|----6-666-6--3-333-3-----------6-666-666-666-8-10--5-5555555555----|

Post-Chorus (We're gonna drown in the river)
 
 e|------------------------------------------|
 B|------------------------------------------|
 G|---------------88-888-8888888---5-5-5-----|
 D|---12~~~~~~----66-666-6666666---5-5-5-----|
 A|---10~~~~~~----66-666-6666666---3-3-3-----|
 E|---10~~~~~~----66-666-6666666-------------|

(btw these are same
Verse 2:(And i reach and find) Palm mute these chords as Verse 1)
 
 e|-----------------------------------------------------------------------|
 B|------(10's not 1's)----------------------------------(1's not 11's)---|
 G|-----------------------------------------------------------------------|
 D|---------------------------------------------------------------------|
 A|---10-101010-101010-1010--5-555-555-555-55-6-666-666-666--1-111-111-11-|
 E|---10-101010-101010-1010--5-555-555-555-55-6-666-666-666--1-111-111-11-|
 e|------------------------------------------------------------------------|
 B|--------------(continue to palm mute)-----------------------------------|
 G|------------------------------------------------------------------------|
 D|------------------------------------------------------------------------|
 A|--3-333-333-333-33-9-999-999-999-99-101010-101010-101010--8-888-888-88--|
 E|--3-333-333-333-33-9-999-999-999-99-101010-101010-101010--8-888-888-88--|

(And i pull and i pull and i pull)
 
 e|----------------------------------------------------|
 B|----------------------------------------------------|
 G|----------------------------------------------------|
 D|-------3--------1-------0---------5-----------------|
 A|----33-3-----11-1----00-0------55-5-----5-5-555555--|
 E|----33-3-X8--11-1X8--00-0-X8---55-5-X4--5-5-555544--|

.. .. .. ..
Chorus 2
 
 e|-----------------------------------------------------------------------|
 B|-----------------------------------------------------------------------|
 G|-----------------------------------------------------------------------|
 D|---------------------5-555-555-55--------------------------------------|
 A|-6-666-66--3-333-33--3-333-333-33-6-666-66-----8-888-8-6666-8-6-5-3-5--|
 E|-6-666-66--3-333-33---------------6-666-66-----------------------------|

Chorus 2 continued
 
 e|------------------------------------------------------------------|
 B|------------------------------------------------------------------|
 G|------------------------------------------------------------------|
 D|---------------------5-555-555-55---------------------------------|
 A|-6-666-66--3-333-33--3-333-333-33-6-666-666-666-66-555-555-555----|
 E|-6-666-66--3-333-33---------------6-666-666-666-66-555-555-544----|

Outro 2:
 
 e|---------------------------------------------------------------|
 B|--13-13-13-13--15-15-15-15--16-16-16-16---13-11----------------|
 G|------------------------------------------------12-10-12-------|
 D|---------------------------------------------------------------|
 A|----------------(haven't figured out the rest of that)---------|
 E|---------------------------------------------------------------|

(i've decided long ago)
 
 e|--------------------------------------|
 B|--------------------------------------|
 G|--------------------------------------|
 D|-13-13-131313------33-33-----5--5-----|
 A|-10-10-101010-X2---33-33-X2--5--5-----|X2
 E|-10-10-101010------33-33-----5--5-----|

(over and over and over again)
 
 e|----------|
 B|----------|
 G|----------|
 D|----------|
 A|-3--6-3-6-|X8
 E|----------|

(River wash me clean!)(3:03)
 
 e|----------------|
 B|----------------|
 G|----------------|
 D|-10-10-13-10-13-|do that however many times the song does
 A|-10-10-13-10-13-|
 E|-10-10-13-10-13-|

Then tremelo pick these notes going into the solo
 
 e|---------------------------------------------------------------|
 B|-----15-16---13--11-----9--8-----------------------------------|
 G|---------------------------------------------------------------|
 D|---------------------------------------------------------------|
 A|---------------------------------------------------------------|
 E|---------------------------------------------------------------|

For 3:22-3:40) i just usually play random notes
Then at about 3:41 tremelo pick these
 
 e|--------------------18--20---13-----|
 B|---13--16---18--20------------------|
 G|------------------------------------|
 D|------------------------------------|
 A|------------------------------------|
 E|------------------------------------|

(3:51)continue tremolo picking
 
 e|--151515-161616-171717-181818-1919191919-2020202020--191919--------------|
 B|--151515-161616-171717-181818-1919191919-2020202020--191919--------------|
 G|------------------------------------------------------------191919191919-|
 D|-------------------------------------------------------------------------|
 A|-------------------------------------------------------------------------|
 E|-------------------------------------------------------------------------|

Then
 
 e|--------------|
 B|--------------|
 G|--------------|
 D|--------------|
 A|-10-13-10-13--|
 E|-10-13-10-13--|

End with
 
 e|---------------------(tremolo pick)-----------------|
 B|-----------------------------------15-16------------|
 G|----------------------------------------------------|
 D|--10~~~~--------------------------------------------|
 A|--10~~~~--------------------------------------------|
 E|--10~~~~--------------------------------------------|

If I knew the solo it'd be a lot more accurate, but no one else seems to be
posting a tab of this.

Important: The song above is NOT stored on the Chordie server. The original song is hosted at www.guitaretab.com. Chordie works as a search engine and provides on-the-fly formatting. Chordie does not index songs against artists'/composers' will. To remove this song please click here.

Text color:
Chord color:
Chord grids: 
Font size:    
Page size: 

B Bb C D D# F G G#
Rate #1 of 2 versions

Login - add to songbook

SHARE PAGE  



You need to log in to post comments