Guitar Tabs, Chords and Lyrics
Server problems seems to be fixed. Chordie has been experiencing problems with songs disappearing. These issues now seems to be fixed, but still verifying the fix. If you find anything strange, please email admin@chordie.com.


The Most Evil Spell   Emil Bulls

 
 E---------------------------------------------------------------|
 B---------------------------------------------------------------|
 G---------------------------------------------------------------|
 D---------------------------------------------------------------|
 A--------------0~-----0~--------0~------------------------------|
 E--(2h3p2)-----0~--0--0~--14h15-0~--0-0---19(^)~--20(^)~--------|

 


 


 den 19. und 20. bund sollte man nich stattdessen auf der 5. oder 4. seite spielen, das


 wirklich so.


 


 """Interlude""" 0:20


 

 
 E-------------------------------------------------|
 B-------------------------------------------------|
 G-------------------------------------------------|
 D--------------------------------7-7---8-8--------|
 A---0-000--0-000--2h3--0-000-0---7-7---8-8--------|
 E---0-000--0-000--2h3--0-000-0---7-7---8-8--------|

 


 ... ... ... .


 


 """Chorus""" 0:30


 

 
 E------------------------------------------------------------------------|
 B------------------------------------------------------------------------|
 G------------------------------------------------------------------------|
 D--0~----0~--0~---8~-----8~--8\---3~-----3~--3~----7-7~-----7~--7\-------|
 A--0~----0~--0~---8~-----8~--8\---3~-----3~--3~----7-7~-----7~--7\-------|
 E--0~----0~--0~---8~-----8~--8\---3~-----3~--3~----7-7~-----7~--7\-------|

 


 


 oder


 


 

 
 E--------------------------------------------------------------------------|
 B--------------------------------------------------------------------------|
 G--------7~--7~------------------------------------------------------------|
 D--0~----0~--0~---8~----8~--8~------3~-----3~--3~-------7-7~-----7~--7\----|
 A--0~----0~--0~---8~----8~--8~------3~-----3~--3~-------7-7~-----7~--7\----|
 E--0~----0~--0~---8~----8~--8/12\---3~-----3~--3h5p3----7-7~-----7~--7\----|

 


 


 Als 2. Gitarre könnte man als melodische beilage folgendes spielen (nicht auf dem song enthalten)


 

 
 E----------------------------------------------------------------------|
 B----------------------------------------------------------------------|
 G---7~----7~--7~----10~----10~-10~---5~----5~--5~----9~----9~--9~------|
 D---x~----x~--x~----x~-----x~--x~----x~----x~--x~----x~----x~--x~------|
 A---5~----5~--5~----8~-----8~--8~----3~----3~--3~----7-----7~--7-------|
 E----------------------------------------------------------------------|

 


 


 """Post-Chorus""" 0:50


 NO GUITAR


 nur der bass


 


 """Verse 2""" 0:54


 Wird eingeleitet durch folgendes und wiederholt sich dann nur


 

 
 E--------------------|
 B--------------------|
 G--------------------|
 D--------------------|
 A--------------------|
 E---14h15p14---------|

 


 


 [] [] REPEAT [] [] Interlude [] [] Chorus [] []


 


 """Post-Chorus 2""" 1:36 (im hintergrund)


 

 
 E----------------------------------------------------|
 B----------------------------------------------------|
 G---14------12-------10------9-------7-7----5-5------|
 D---x--x3---x--x3----x--x3---x--x3---x-x----x-x------|
 A---12------10-------8-------7-------5-5----3-3------|
 E----------------------------------------------------|

 


 


 """Breakdown""" 1:41


 

 
 E---------------------------------------------------------|
 B---------------------------------------------------------|
 G---------------------------------------------------------|
 D---------------------------------------------------------|
 A---------------------------------------------------------|
 E---15-0-0---14-0-0---17-0-0---15-0-0---17-0---19-0-------|

 


 beides 2 mal


 

 
 E----------------------------------------------------------|
 B----------------------------------------------------------|
 G----------------------------------------------------------|
 D----------------------------------------------------------|
 A----------------------------------------------------------|
 E--20-0-0---19-0-0---17-0-0---15-0-0---14-0---15-0---------|

 


 


 dann:


 

 
 E---------------------------------------------------------|
 B---------------------------------------------------------|
 G---------------------------------------------------------|
 D---------------------------------------------------------|
 A---------------------------------------------------------|
 E---15-0-0---14-0-0---12-0-0---10-0-0---8-0---7-0---------|
 E-------------------------------------------------|
 B-------------------------------------------------|
 G-------------------------------------------------|
 D-------------------------------------------------|
 A-----------------------------------2h3p2~--------|
 E---8-0-0---7-0-0---5-0-0---3-0-0---2h3p2~--------|

 


 


 1:56


 

 
 E----------------------------------------------------------------|
 B----------------------------------------------------------------|
 G----------------------------------------------------------------|
 D---7~----5~----4~----2~--2h3p2~------7~----5~----4~----2--------|
 A---7~----5~----4~----2~--2h3p2~------7~----5~----4~----2--------|
 E---7~----5~----4~----2~--2h3p2~------7~----5~----4~----2--------|

 


 


 Das folgende Interlude ist ganz normal, wird wiederholt.


 Den Chorus wiederholt man dann auch nur noch and fügt folgende gitarre hinzu:


 

 
 E-------------------------------------------------|
 B---15~-------------------------------------------|
 G---17b19~--(17b19)----19r17-17-17~---17-18~------|
 D-------------------------------------------------|
 A-------------------------------------------------|
 E-------------------------------------------------|


Important: The song above is NOT stored on the Chordie server. The original song is hosted at www.guitaretab.com. Chordie works as a search engine and provides on-the-fly formatting. Chordie does not index songs against artists'/composers' will. To remove this song please click here.

This song is displayed as text-only. Transposing and tuning is only available for chordpro-songs.
Rate #2 of 2 versions

Login - add to songbook

SHARE PAGE  




You need to log in to post comments