Guitar Tabs, Chords and Lyrics
Login is temporarily disabled for some users. Do not panic. Will be back in an hour or two. DO NOT REREGISTER!!


I Don't Belong Here  Emil Bulls

Song: I Don't Belong Here
Album: Phoenix (2009)
tabbed by: necriononguitar
e-mail (NO SPAM!): tim.rathgen@gmx.de
REAL FANS SUPPORT BANDS BY PURCHASING THEIR CDS!!!
Tuning: Verschieden (Das Klavier ist normal gestimmt, die Gittaren aber nich)
. = Palm-Muted
~ = hold note
^ = vibrate
p = pull off
h = hammer on
/ = slide up
\ = slide down
Der Song ist in 3 Teile aufgeteilt, der erste und letzte in Chords
"""Part One""" (Klavier, Tuning: Standard)
[G] [Bb] [G] [Bb] 
Thank [G]god I finally know this [Bb]ship is out of control
Thank [G]god I have the balls to leave it [Bb]to the sea
Got my [G]lifeboat well prepared, I'm gonna [Bb]breath virgin air
I'm [G]gonna smell the scent of a [Bb]new island
It's [Bb]already said already done, I [G]know I owe you nothing
Everything is said and [Eb]done, I just can't [Bb]stay here
It's [Bb]already said already done, I [G]know I owe you nothing
Everything is said and [Eb]done, I don't be[Bb]long here
[G] [Bb]  
I've got the [G]wind at my back, the [Bb]sun upon my face
The [G]wings of my belief carry me [Bb]to the stars
I [G]wanna spend my days in a [Bb]place without any memories
Where the [G]wounds of experience can find a [Bb]chance to heal
It's [Bb]already said already done, I [G]know I owe you nothing
Everything is said and [Eb]done, I just can't [Bb]stay here
It's [Bb]already said already done, I [G]know I owe you nothing
Everything is said and [Eb]done, I don't be[Bb]long here
And [Bb]I, I won't need you to[G]morrow, like you don't care to[Eb]day
We'd well in constant [Bb]sorrow
Sorrow [Bb]is the name of your [G]game I don't be[Eb]long here
God, I don't be[Bb]long here
"""Part Two""" (2 Clean-Guitars, Tuning: Half-Step Down) at 3:30
Guitar 1 (akkorde entsprechen standard tuning)
[Bb] [G]  
 
 E----------------------------------------------------------------------------|
 B----------------------------------------------------------------------------|
 G----------------------------------------------------------------------------|
 D----------------------------------------------------------------------------|
 A----9-9-9-9-9-9-9-9---9-9-9-9-9-9-9-9----6-6-6-6-6-6-6-6---6-6-6-6-6-6-6-6--|
 E----7-7-7-7-7-7-7-7---7-7-7-7-7-7-7-7----4-4-4-4-4-4-4-4---4-4-4-4-4-4-4-4--|

[Eb] [Bb]  
 
 E----------------------------------------------------------------------------|
 B----------------------------------------------------------------------------|
 G----------------------------------------------------------------------------|
 D----------------------------------------------------------------------------|
 A----2-2-2-2-2-2-2-2---2-2-2-2-2-2-2-2----9-9-9-9-9-9-9-9---9-9-9-9-9-9-9-9--|
 E----0-0-0-0-0-0-0-0---0-0-0-0-0-0-0-0----7-7-7-7-7-7-7-7---7-7-7-7-7-7-7-7--|

(2x beim 2. mal das zweite Bb nur einmal anschlagen und klingen lassen)
Guitar 2
I
[Bb]  
 
 E----------------------------------------------------------|
 B----------------------------------------------------------|
 G---6/8-8-8-8---11-11-11-11---8-8-8-8---6-6-6-6------------|
 D----------------------------------------------------------|
 A----------------------------------------------------------|
 E----------------------------------------------------------|

[G]  
 
 E-----------------------------------------------------------|
 B-----------------------------------------------------------|
 G----8-8-8-8--(8/)11-11-11-11---8-8-8-8---6-6-6-------------|
 D-----------------------------------------------------------|
 A-----------------------------------------------------------|
 E-----------------------------------------------------------|

[Eb] [Bb]  
 
 E--------------------------------------------------------------------------|
 B--------------------------------------------------------------------------|
 G---6\4--4-4-4-4-4-4---6-6-6-6---9-8-8-8---6\4-4-4-4-4-4--4-4-4-4-4-4-4-4--|
 D--------------------------------------------------------------------------|
 A--------------------------------------------------------------------------|
 E--------------------------------------------------------------------------|

II
[Bb]  
 
 E----------------------------------------------------------|
 B----------------------------------------------------------|
 G---6/8-8-8-8---11-11-11-11---8-8-8-8---6-6-6-6------------|
 D----------------------------------------------------------|
 A----------------------------------------------------------|
 E----------------------------------------------------------|

[G]  
 
 E-----------------------------------------------------------|
 B-----------------------------------------------------------|
 G----8-8-8-8--(8/)11-11-11-11---8-8-8-8---6-6-6-------------|
 D-----------------------------------------------------------|
 A-----------------------------------------------------------|
 E-----------------------------------------------------------|

[Eb] [Bb]  
 
 E---------------------------------------------------------------------|
 B---------------------------------------------------------------------|
 G---6\4--4-4-4-4-4-4---6-6-6-6---9-8-8-8----4~---6~---8~---11~--------|
 D---------------------------------------------------------------------|
 A---------------------------------------------------------------------|
 E---------------------------------------------------------------------|

"""Part Three""" (1 Guitar, Tuning: Half-Step Down) at 4:06
[Bb] [G]  
 
 E----------------------------------------------------------------------------|
 B----------------------------------------------------------------------------|
 G----------------------------------------------------------------------------|
 D---9-9-9-9-9-9-9-9---9-9-9-9-9-9-9-9----6-6-6-6-6-6-6-6---6-6-6-6-6-6-6-6---|
 A---9-9-9-9-9-9-9-9---9-9-9-9-9-9-9-9----6-6-6-6-6-6-6-6---6-6-6-6-6-6-6-6---|
 E---7-7-7-7-7-7-7-7---7-7-7-7-7-7-7-7----4-4-4-4-4-4-4-4---4-4-4-4-4-4-4-4---|

[Eb] [Bb]  
 
 E---------------------------------------------------------------------------|
 B---------------------------------------------------------------------------|
 G---------------------------------------------------------------------------|
 D---2-2-2-2-2-2-2-2---2-2-2-2-2-2-2-2----9-9-9-9-9-9-9-9---9-9-9-9-9-9-9-9--|
 A---2-2-2-2-2-2-2-2---2-2-2-2-2-2-2-2----9-9-9-9-9-9-9-9---9-9-9-9-9-9-9-9--|
 E---0-0-0-0-0-0-0-0---0-0-0-0-0-0-0-0----7-7-7-7-7-7-7-7---7-7-7-7-7-7-7-7--|

It's [Bb]already said already done, I [G]know I owe you nothing
Everything is said and [Eb]done, I just can't [Bb]stay here
It's [Bb]already said already done, I [G]know I owe you nothing
Everything is said and [Eb]done, I don't be[Bb]long here
Alles 4x
Bb * G * Eb *
God, I don't belong here
Bb (einmal anschlagen)
I don't belong here
* at 5:20 (kleines solo-ding):
 
 E----------------------------------------------------------|
 B----12-12-12-12---11-11-11-11---9-9-9-9-------------------|
 G------------------------------------------8-8-8-8---------|
 D----------------------------------------------------------|
 A----------------------------------------------------------|
 E----------------------------------------------------------|

Und das wars, ich hoffe es hat gefallen, bitte rated und hinterlasst einen comment ;D
Cheers...
(nebenbei: viele andere Emil Bulls auf meinem Profil)

Important: The song above is NOT stored on the Chordie server. The original song is hosted at www.guitaretab.com. Chordie works as a search engine and provides on-the-fly formatting. Chordie does not index songs against artists'/composers' will. To remove this song please click here.

Text color:
Chord color:
Chord grids: 
Font size:    
Page size: 

Bb Eb G
Rate #1 of 1 versions

Login - add to songbook

SHARE PAGE  




You need to log in to post comments