Guitar Tabs, Chords and Lyrics
Login is temporarily disabled for some users. Do not panic. Will be back in an hour or two. DO NOT REREGISTER!!


Cocoon  Emil Bulls

Song: Cocoon Acoustic
Album: The Life Acoustic
tabbed by: necriononguitar
e-mail (NO SPAM!): tim.rathgen@gmx.de
REAL FANS SUPPORT BANDS BY PURCHASING THEIR CD'S!!!
Tuning: Standard
. = Palm-Muted
~ = hold note
^ = vibrate
p = pull off
h = hammer on
/ = slide up
\ = slide down
Chords:
[C#m] [A] [B] [F#m]  
 
 E----4-----5-----7-----2-------|
 B----5-----5-----7-----2-------|
 G----6-----6-----8-----2-------|
 D----6-----7-----9-----4-------|
 A----4-----7-----9-----4-------|
 E----------5-----7-----2-------|

Also das lied ist ziemlich simpel gehalten, nur der bridge/ das outro fordert ein wenig :D
Der verse besteht nur aus einem Riff bzw einem Akkord, also schreibe ich den Akkord nur
einmal am Anfang an und tabbe den Riff :D
Oh ja und dieser tab ist auf nachfrage getabbt, falls also nachfrage nach mehr besteht,
bitte mir an die oben genannte email schreiben :D
Ein dank kann man mir auch schreiben ;D
Nun ja kommen wir zum erssenziellen.
Riff im Verse in der 3. Zeile des verses:
 
 E---------4-------7----------------4------4-------7-------------|
 B-------5---5~------5------------5---5------5---5---5-----------|
 G---4h6---------------6------4h6-------6------6-------6---------|
 D---------------------------------------------------------------|
 A---------------------------------------------------------------|
 E---------------------------------------------------------------|

C#m (riff steht oben :D)
here all our wounds can heal
scars and blisters disappear
we`re safe just as long as we stay
[B]in [A]this co[F#m]coon [B]I melt a[C#m]way with [A]you
oh [B]yeah in [C#m]this cocoon no [A]one [F#m]can dis[B]tur[C#m]b
our [A]dreams our e[B]ternal [C#m]sleep
C#m (riff)
oh here love takes root and it grows
adrenaline and dopamine begin to flow
we`re one just as long as we stay
[B]in [A]this co[F#m]coon [B]I melt a[C#m]way with [A]you
oh [B]yeah in [C#m]this cocoon no [A]one [F#m]can dis[B]tur[C#m]b
our [A]dreams our e[B]ternal [C#m]sleep
Ab hier gibt?s n tab :D
Interlude:
 
 E----------------------------------------------------------------------|
 B----------------------------------------------------------------------|
 G-------6---6---------6---6---------6---6--6-6b7-7r6-------6---6-------|
 D----------------------------------------------------------------------|
 A---2h4---4-------2h4---2-------2h4---2----------------2h4---4---------|
 E----------------------------------------------------------------------|

Interlude 2
 
 E-----------------------------------------------------|
 B-----------------------------------------------------|
 G---6---4---7---6-6-7----6---4---7---6-6-7------------|
 D-----------------------------------------------------|
 A---4---2---5---4-4-5----4---2---5---4-4-5------------|
 E-----------------------------------------------------|
 E--------------------------------------------------------|
 B--------------------------------------------------------|
 G---6---4---7---6-6-7----6---4---7---6-6-7--6-6-7--------|
 D--------------------------------------------------------|
 A---4---2---5---4-4-5----4---2---5---4-4-5--4-4-5--------|
 E--------------------------------------------------------|

Solo: (Eine Gitarre spielt das Interlude 2 weiter)
 
 E---------------------------------------------------------------|
 B---------------------------------------------------------------|
 G-----------4h6-6b7-(6b)7r6--4----6h7-(6b)7r6--4-------4-4------|
 D-------4h6----------------------------------------4h6----------|
 A---4h7---------------------------------------------------------|
 E---------------------------------------------------------------|
 E--------------------------------------------------------|
 B--------------------------------------------------------|
 G-----------4h6-6b7-(6b)7r6--4------4-4------------------|
 D-------4h6---------------------6b7------6b7r6--4-4------|
 A---4h7--------------------------------------------------|
 E--------------------------------------------------------|
 E------------------------------------------------------------|
 B------------------------------------------------------------|
 G-----------4h6-6b7-(6b)7r6--4-------------------------------|
 D-------4h6---------------------6b7-(6b)7r6--4--4-6-4--------|
 A---4h7-----------------------------------------------7------|
 E------------------------------------------------------------|
 E---------------------------------------------------------------------|
 B---------------------------------------------------------------------|
 G-----------4h6-------------------------------------------------------|
 D-------4h6------6b7-(6b)7r6--4---6b7-(6b)7r6--4---6b7-(6b)7r6-4------|
 A---4h7----------------------------------------------------------7----|
 E---------------------------------------------------------------------|

(da hätte man mehr draus machen können...)
[B]in [A]this co[F#m]coon [B]I melt a[C#m]way with [A]you
oh [B]yeah in [C#m]this cocoon no [A]one [F#m]can dis[B]tur[C#m]b
our [A]dreams our e[B]ternal [C#m]sleep
[B]in [A]this co[F#m]coon [B]I melt a[C#m]way with [A]you
oh [B]yeah in [C#m]this cocoon no [A]one [F#m]can dis[B]tur[C#m]b
our [A]dreams our e[B]ternal [C#m]sleep
und das wars auch schon... dauerte auch nur ne stunde...
Bitte bewerten, kommentieren und mich gerne verbessern ;D
Cheers...

Important: The song above is NOT stored on the Chordie server. The original song is hosted at www.guitaretab.com. Chordie works as a search engine and provides on-the-fly formatting. Chordie does not index songs against artists'/composers' will. To remove this song please click here.

Text color:
Chord color:
Chord grids: 
Font size:    
Page size: 

A B C#m F#m
Rate #1 of 2 versions

Jango Player

Login - add to songbook

SHARE PAGE  




You need to log in to post comments