Guitar Tabs, Chords and Lyrics
Server problems seems to be fixed. Chordie has been experiencing problems with songs disappearing. These issues now seems to be fixed, but still verifying the fix. If you find anything strange, please email admin@chordie.com.


Ahti  Ensiferum

Standard tuning. Enjoy
Note Duration
 
 ---------------

W - whole
H - half
Q - quarter
E - 8th
S - 16th
T - 32nd
X - 64th
. - note dotted
|-n-| - n-tuplets
Q Q Q Q Q S S S S S S S S Q
 
 E||----------------------|----------------------------|
 B||----------------------|----------------------------|
 G||-----------------6----|--4--------------------2----|
 D||-------3----6----4----|--4--------------------2----|
 A||--4----1----4---------|--2----2-2-2-2-2-2-2-2-0----|
 E||--2-------------------|----------------------------|

S S S S S S S S Q Q
 
 ----------------------------|
 ----------------------------|
 ------------------4----2----|
 ------------------4----2----|
 --2-2-2-2-2-2-2-2-2----0----|
 ----------------------------|

Q S S S S Q S S S S
 
 ----------------------------|
 ----------------------------|
 --7------------9------------|
 --7------------9------------|
 --5----5-5-5-5-7----7-7-7-7-|
 ----------------------------|

Q S S S S Q S S S S
 
 ----------------------------|
 ----------------------------|
 --4-------------------------|
 --4------------4------------|
 --2----2-2-2-2-4------------|
 ---------------2----2-2-2-2-|

Q S S S S S S S S Q
 
 ----------------------------|
 ----------------------------|
 --4--------------------2----|
 --4--------------------2----|
 --2----2-2-2-2-2-2-2-2-0----|
 ----------------------------|

S S S S S S S S Q Q
 
 ----------------------------|
 ----------------------------|
 ------------------4----2----|
 ------------------4----2----|
 --2-2-2-2-2-2-2-2-2----0----|
 ----------------------------|

Q S S S S Q S S S S
 
 ----------------------------|
 ----------------------------|
 ----------------------------|
 ----------------------------|
 --5------------4------------|
 --7----7-7-7-7-5----5-5-5-5-|

Q S S S S Q S S S S
 
 ----------------------------|
 ----------------------------|
 ----------------------------|
 ----------------------------|
 --2------------1------------|
 --3----3-3-3-3-2----2-2-2-2-|

Q S S S S S S S S Q
 
 ----------------------------|
 ----------------------------|
 --4--------------------2----|
 --4--------------------2----|
 --2----2-2-2-2-2-2-2-2-0----|
 ----------------------------|

S S S S S S S S Q Q
 
 ----------------------------|
 ----------------------------|
 ------------------4----2----|
 ------------------4----2----|
 --2-2-2-2-2-2-2-2-2----0----|
 ----------------------------|

Q S S S S Q S S S S
 
 ----------------------------|
 ----------------------------|
 --7------------9------------|
 --7------------9------------|
 --5----5-5-5-5-7----7-7-7-7-|
 ----------------------------|

Q S S S S Q S S S S
 
 ----------------------------|
 ----------------------------|
 --4-------------------------|
 --4------------4------------|
 --2----2-2-2-2-4------------|
 ---------------2----2-2-2-2-|

Q S S S S S S S S Q
 
 ----------------------------|
 ----------------------------|
 --4--------------------2----|
 --4--------------------2----|
 --2----2-2-2-2-2-2-2-2-0----|
 ----------------------------|

S S S S S S S S Q Q
 
 ----------------------------|
 ----------------------------|
 ------------------4----2----|
 ------------------4----2----|
 --2-2-2-2-2-2-2-2-2----0----|
 ----------------------------|

Q S S S S Q S S S S
 
 ----------------------------|
 ----------------------------|
 ----------------------------|
 ----------------------------|
 --5------------4------------|
 --7----7-7-7-7-5----5-5-5-5-|

Q S S S S Q S S S S H H
 
 ----------------------------|--------------------|
 ----------------------------|--------------------|
 ----------------------------|--------------------|
 ----------------------------|--------------------|
 --2------------1------------|--5--------7--------|
 --3----3-3-3-3-2----2-2-2-2-|--5--------7--------|

[B] [B] [B] [B]  
 
 --------------------|--------------------|
 --------------------|--------------------|
 --------------------|--------------------|
 --------------------|--------------------|
 --4--------5--------|--5--------7--------|
 --5--------5--------|--5--------7--------|

H Q Q W
 
 ---------------------|-------------------|
 ---------------------|-------------------|
 ---------------------|--4----------------|
 -----------9----9----|--4----------------|
 --5--------9----9----|--2----------------|
 --5--------7----7----|-------------------|

W W
 
 -------------------|-------------------|
 -------------------|-------------------|
 --4----------------|--9----------------|
 --4----------------|--9----------------|
 --2----------------|--7----------------|
 -------------------|-------------------|

H E E Q H Q Q
 
 ----------------------|---------------------|
 ----------------------|---------------------|
 -----------4-----4----|--L--------4----L----|
 --4--------4-----4----|--L--------4----L----|
 --4--------2-----2----|--L--------2----L----|
 --2-------------------|---------------------|

[B] [B] [B] [B]  
 
 --------------------|--------------------|
 --------------------|--------------------|
 --L--------7--------|--4--------4--------|
 --L--------7--------|--4--------2--------|
 --L--------5--------|--2-----------------|
 --------------------|--------------------|

[B] [B] [B] [B]  
 
 --------------------|--------------------|
 --------------------|--------------------|
 --4--------4--------|--L--------4--------|
 --4--------4--------|--L--------4--------|
 --2--------2--------|--L--------2--------|
 --------------------|--------------------|

[B] [B] [B] [B]  
 
 --------------------|--------------------|
 --------------------|--------------------|
 --L--------9--------|--L-----------------|
 --L--------9--------|--L--------4--------|
 --L--------7--------|--L--------4--------|
 --------------------|-----------2--------|

E E H Q W
 
 ----------------------|-------------------|
 ----------------------|-------------------|
 --4-----4--------L----|--4----------------|
 --4-----4--------L----|--4----------------|
 --2-----2--------L----|--2----------------|
 ----------------------|-------------------|

[B] [B] [B] [B]  
 
 --------------------|--------------------|
 --------------------|--------------------|
 --7--------4--------|--9--------4--------|
 --7--------4--------|--9--------4--------|
 --5--------2--------|--7--------2--------|
 --------------------|--------------------|

[B] [B] [B] [B]  
 
 --------------------|--------------------|
 --------------------|--------------------|
 --------------------|--------------------|
 --------------------|--------------------|
 --5--------7--------|--4--------5--------|
 --5--------7--------|--5--------5--------|

H H H Q Q
 
 --------------------|---------------------|
 --------------------|---------------------|
 --------------------|---------------------|
 --------------------|-----------9----9----|
 --5--------7--------|--5--------9----9----|
 --5--------7--------|--5--------7----7----|

[B] [B] [B] [B]  
 
 --------------------|--------------------|
 --------------------|--------------------|
 --------------------|--------------------|
 --------------------|--------------------|
 --5--------7--------|--4--------5--------|
 --5--------7--------|--5--------5--------|

H H H Q Q
 
 --------------------|---------------------|
 --------------------|---------------------|
 --------------------|---------------------|
 --------------------|-----------9----9----|
 --5--------7--------|--5--------9----9----|
 --5--------7--------|--5--------7----7----|

W W
 
 -------------------|-------------------|
 -------------------|-------------------|
 --4----------------|--4----------------|
 --4----------------|--4----------------|
 --2----------------|--2----------------|
 -------------------|-------------------|

W H E E Q
 
 -------------------|----------------------|
 -------------------|----------------------|
 --9----------------|-----------4-----4----|
 --9----------------|--4--------4-----4----|
 --7----------------|--4--------2-----2----|
 -------------------|--2-------------------|

H Q Q H H
 
 ---------------------|--------------------|
 ---------------------|--------------------|
 --L--------4----L----|--L--------7--------|
 --L--------4----L----|--L--------7--------|
 --L--------2----L----|--L--------5--------|
 ---------------------|--------------------|

[B] [B] [B] [B]  
 
 --------------------|--------------------|
 --------------------|--------------------|
 --4--------4--------|--4--------4--------|
 --4--------2--------|--4--------4--------|
 --2-----------------|--2--------2--------|
 --------------------|--------------------|

[B] [B] [B] [B]  
 
 --------------------|--------------------|
 --------------------|--------------------|
 --L--------4--------|--L--------9--------|
 --L--------4--------|--L--------9--------|
 --L--------2--------|--L--------7--------|
 --------------------|--------------------|

H H E E H Q
 
 --------------------|----------------------|
 --------------------|----------------------|
 --L-----------------|--4-----4--------L----|
 --L--------4--------|--4-----4--------L----|
 --L--------4--------|--2-----2--------L----|
 -----------2--------|----------------------|

W H H
 
 -------------------|--------------------|
 -------------------|--------------------|
 --4----------------|--7--------4--------|
 --4----------------|--7--------4--------|
 --2----------------|--5--------2--------|
 -------------------|--------------------|

[B] [B] [B] [B]  
 
 --------------------|--------------------|
 --------------------|--------------------|
 --9--------4--------|--------------------|
 --9--------4--------|--------------------|
 --7--------2--------|--5--------7--------|
 --------------------|--5--------7--------|

[B] [B] [B] [B]  
 
 --------------------|--------------------|
 --------------------|--------------------|
 --------------------|--------------------|
 --------------------|--------------------|
 --4--------5--------|--5--------7--------|
 --5--------5--------|--5--------7--------|

H Q Q H H
 
 ---------------------|--------------------|
 ---------------------|--------------------|
 ---------------------|--------------------|
 -----------9----9----|--------------------|
 --5--------9----9----|--5--------7--------|
 --5--------7----7----|--5--------7--------|

[B] [B] [B] [B]  
 
 --------------------|--------------------|
 --------------------|--------------------|
 --------------------|--------------------|
 --------------------|--------------------|
 --4--------5--------|--5--------7--------|
 --5--------5--------|--5--------7--------|

H Q Q Q S S S S S S S S Q
 
 ---------------------|----------------------------|
 ---------------------|----------------------------|
 ---------------------|--4--------------------2----|
 -----------9----9----|--4--------------------2----|
 --5--------9----9----|--2----2-2-2-2-2-2-2-2-0----|
 --5--------7----7----|----------------------------|

S S S S S S S S Q Q
 
 ----------------------------|
 ----------------------------|
 ------------------4----2----|
 ------------------4----2----|
 --2-2-2-2-2-2-2-2-2----0----|
 ----------------------------|

Q S S S S Q S S S S
 
 ----------------------------|
 ----------------------------|
 --7------------9------------|
 --7------------9------------|
 --5----5-5-5-5-7----7-7-7-7-|
 ----------------------------|

Q S S S S Q S S S S
 
 ----------------------------|
 ----------------------------|
 --4-------------------------|
 --4------------4------------|
 --2----2-2-2-2-4------------|
 ---------------2----2-2-2-2-|

Q S S S S S S S S Q
 
 ----------------------------|
 ----------------------------|
 --4--------------------2----|
 --4--------------------2----|
 --2----2-2-2-2-2-2-2-2-0----|
 ----------------------------|

S S S S S S S S Q Q
 
 ----------------------------|
 ----------------------------|
 ------------------4----2----|
 ------------------4----2----|
 --2-2-2-2-2-2-2-2-2----0----|
 ----------------------------|

Q S S S S Q S S S S
 
 ----------------------------|
 ----------------------------|
 ----------------------------|
 ----------------------------|
 --5------------4------------|
 --7----7-7-7-7-5----5-5-5-5-|

Q S S S S Q S S S S
 
 ----------------------------|
 ----------------------------|
 ----------------------------|
 ----------------------------|
 --2------------1------------|
 --3----3-3-3-3-2----2-2-2-2-|

Q S S S S S S S S Q
 
 ----------------------------|
 ----------------------------|
 --7--------------------5----|
 --7--------------------5----|
 --5----5-5-5-5-5-5-5-5-3----|
 ----------------------------|

S S S S S S S S Q Q
 
 ----------------------------|
 ----------------------------|
 ------------------7----5----|
 ------------------7----5----|
 --5-5-5-5-5-5-5-5-5----3----|
 ----------------------------|

Q S S S S Q S S S S
 
 ----------------------------------|
 ----------------------------------|
 --10------------12----------------|
 --10------------12----------------|
 ---8----8-8-8-8-10----10-10-10-10-|
 ----------------------------------|

Q S S S S Q S S S S
 
 ----------------------------|
 ----------------------------|
 --7-------------------------|
 --7------------7------------|
 --5----5-5-5-5-7------------|
 ---------------5----5-5-5-5-|

Q S S S S S S S S Q
 
 ----------------------------|
 ----------------------------|
 --7--------------------5----|
 --7--------------------5----|
 --5----5-5-5-5-5-5-5-5-3----|
 ----------------------------|

S S S S S S S S Q Q
 
 ----------------------------|
 ----------------------------|
 ------------------7----5----|
 ------------------7----5----|
 --5-5-5-5-5-5-5-5-5----3----|
 ----------------------------|

Q S S S S Q S S S S
 
 ----------------------------------|
 ----------------------------------|
 --10------------12----------------|
 --10------------12----------------|
 ---8----8-8-8-8-10----10-10-10-10-|
 ----------------------------------|

Q S S S S Q S S S S H H
 
 ----------------------------|--------------------|
 ----------------------------|--------------------|
 --7-------------------------|--------------------|
 --7------------7------------|--------------------|
 --5----5-5-5-5-7------------|--3--------5--------|
 ---------------5----5-5-5-5-|--1--------3--------|

[B] [B] [B] [B]  
 
 --------------------|--------------------|
 --------------------|--------------------|
 --------------------|--------------------|
 --5--------7--------|--3--------5--------|
 --3--------5--------|--1--------3--------|
 --------------------|--------------------|

[B] [B] [B] [B]  
 
 --------------------|--------------------|
 --------------------|--------------------|
 --------------------|--------------------|
 --2--------7--------|--------------------|
 --0--------5--------|--3--------5--------|
 --------------------|--1--------3--------|

[B] [B] [B] [B]  
 
 --------------------|--------------------|
 --------------------|--------------------|
 --------------------|--------------------|
 --5--------7--------|--3--------5--------|
 --3--------5--------|--1--------3--------|
 --------------------|--------------------|

H H W
 
 --------------------|-------------------|
 --------------------|-------------------|
 --------------------|-------------------|
 --2--------7--------|-------------------|
 --0--------5--------|--4----------------|
 --------------------|--4----------------|

W W
 
 -------------------|-------------------|
 -------------------|-------------------|
 -------------------|-------------------|
 -------------------|--2----------------|
 --6----------------|--2----------------|
 --6----------------|--0----------------|

W W
 
 -------------------|-------------------|
 -------------------|-------------------|
 -------------------|-------------------|
 --4----------------|--6----------------|
 --4----------------|--6----------------|
 --2----------------|--4----------------|

W W
 
 -------------------|-------------------|
 -------------------|-------------------|
 -------------------|-------------------|
 --8----------------|--6----------------|
 --8----------------|--6----------------|
 --6----------------|--4----------------|

W E S S S S S S Q Q
 
 -------------------|---------------------------|
 -------------------|---------------------------|
 -------------------|---------------------------|
 -------------------|--7--------------7----5----|
 --6----------------|--5--5-5-5-5-5-5-5----3----|
 --6----------------|---------------------------|

E S S S S S S Q Q
 
 ---------------------------|
 ---------------------------|
 ---------------------------|
 --7--------------5----7----|
 --5--5-5-5-5-5-5-3----5----|
 ---------------------------|

E S S S S S S E S S S S S S
 
 --------------------------------|
 --------------------------------|
 --------------------------------|
 --3--------------5--------------|
 --1--1-1-1-1-1-1-3--3-3-3-3-3-3-|
 --------------------------------|

E S S S S S S S S S S S S S S
 
 ---------------------------------|
 ---------------------------------|
 --5------------------------------|
 --3--3-3-3-3-3-3-3-3-3-3-3-3-3-3-|
 ---------------------------------|
 ---------------------------------|

E S S S S S S Q Q E S S S S S S Q Q
 
 ---------------------------|---------------------------|
 ---------------------------|---------------------------|
 ---------------------------|---------------------------|
 --9--------------9----7----|--9--------------9----7----|
 --7--7-7-7-7-7-7-7----5----|--7--7-7-7-7-7-7-7----5----|
 ---------------------------|---------------------------|

E S S S S S S E S S S S S S
 
 ---------------------------------|
 ---------------------------------|
 ---------------------------------|
 --10--------------9--------------|
 ---8--8-8-8-8-8-8-7--7-7-7-7-7-7-|
 ---------------------------------|

PM PM PM PM
H E E E E E S S S S S S Q Q
 
 -----------------------|---------------------------|
 -----------------------|---------------------------|
 --7--------------------|---------------------------|
 --7--------------------|--7--------------7----5----|
 --5--------------------|--5--5-5-5-5-5-5-5----3----|
 -----------5--3--1--0--|---------------------------|

E S S S S S S Q Q
 
 ---------------------------|
 ---------------------------|
 ---------------------------|
 --7--------------5----7----|
 --5--5-5-5-5-5-5-3----5----|
 ---------------------------|

E S S S S S S E S S S S S S
 
 --------------------------------|
 --------------------------------|
 --------------------------------|
 --3--------------5--------------|
 --1--1-1-1-1-1-1-3--3-3-3-3-3-3-|
 --------------------------------|

E S S S S S S S S S S S S S S
 
 ---------------------------------|
 ---------------------------------|
 --5------------------------------|
 --3--3-3-3-3-3-3-3-3-3-3-3-3-3-3-|
 ---------------------------------|
 ---------------------------------|

PM PM PM PM PM PM PM PM PM PM
E S S S S S S E S S E S S
 
 -----------------------------------------|
 -----------------------------------------|
 -----------------------------------------|
 --9--9--9--9--9--9--9--9--9--9--7--7--7--|
 -----------------------------------------|
 -----------------------------------------|

PM PM PM PM PM PM PM PM PM PM PM PM
E S S S S S S E S S S S S S
 
 ----------------------------------------------|
 ----------------------------------------------|
 ----------------------------------------------|
 ----------------------------------------------|
 --10--10-10-10-10-10-10-10--10-10-10-10-10-10-|
 ----------------------------------------------|

PM PM PM PM PM PM PM PM PM PM PM PM
E S S S S S S E S S S S S S
 
 ---------------------------------------------|
 ---------------------------------------------|
 ---------------------------------------------|
 ---------------------------------------------|
 --10--10-10-10-10-10-10-9--9--9--9--9--9--9--|
 ---------------------------------------------|

W E S S S S S S Q Q
 
 -------------------|---------------------------|
 -------------------|---------------------------|
 -------------------|---------------------------|
 -------------------|--7--------------7----5----|
 --7----------------|--5--5-5-5-5-5-5-5----3----|
 -------------------|---------------------------|

E S S S S S S Q Q
 
 ---------------------------|
 ---------------------------|
 ---------------------------|
 --7--------------5----7----|
 --5--5-5-5-5-5-5-3----5----|
 ---------------------------|

E S S S S S S E S S S S S S
 
 --------------------------------|
 --------------------------------|
 --------------------------------|
 --3--------------5--------------|
 --1--1-1-1-1-1-1-3--3-3-3-3-3-3-|
 --------------------------------|

E S S S S S S S S S S S S S S
 
 ---------------------------------|
 ---------------------------------|
 --5------------------------------|
 --3--3-3-3-3-3-3-3-3-3-3-3-3-3-3-|
 ---------------------------------|
 ---------------------------------|

E S S S S S S Q Q E S S S S S S Q Q
 
 ---------------------------|---------------------------|
 ---------------------------|---------------------------|
 ---------------------------|---------------------------|
 --9--------------9----7----|--9--------------9----7----|
 --7--7-7-7-7-7-7-7----5----|--7--7-7-7-7-7-7-7----5----|
 ---------------------------|---------------------------|

E S S S S S S E S S S S S S
 
 ---------------------------------|
 ---------------------------------|
 ---------------------------------|
 --10--------------9--------------|
 ---8--8-8-8-8-8-8-7--7-7-7-7-7-7-|
 ---------------------------------|

PM PM PM PM
H E E E E E S S S S S S Q Q
 
 -----------------------|---------------------------|
 -----------------------|---------------------------|
 --7--------------------|---------------------------|
 --7--------------------|--7--------------7----5----|
 --5--------------------|--5--5-5-5-5-5-5-5----3----|
 -----------5--3--1--0--|---------------------------|

E S S S S S S Q Q
 
 ---------------------------|
 ---------------------------|
 ---------------------------|
 --7--------------5----7----|
 --5--5-5-5-5-5-5-3----5----|
 ---------------------------|

E S S S S S S E S S S S S S
 
 --------------------------------|
 --------------------------------|
 --------------------------------|
 --3--------------5--------------|
 --1--1-1-1-1-1-1-3--3-3-3-3-3-3-|
 --------------------------------|

E S S S S S S S S S S S S S S
 
 ---------------------------------|
 ---------------------------------|
 --5------------------------------|
 --3--3-3-3-3-3-3-3-3-3-3-3-3-3-3-|
 ---------------------------------|
 ---------------------------------|

PM PM PM PM PM PM PM PM PM PM
E S S S S S S E S S E S S
 
 -----------------------------------------|
 -----------------------------------------|
 -----------------------------------------|
 --9--9--9--9--9--9--9--9--9--9--7--7--7--|
 -----------------------------------------|
 -----------------------------------------|

PM PM PM PM PM PM PM PM PM PM PM PM
E S S S S S S E S S S S S S
 
 ----------------------------------------------|
 ----------------------------------------------|
 ----------------------------------------------|
 ----------------------------------------------|
 --10--10-10-10-10-10-10-10--10-10-10-10-10-10-|
 ----------------------------------------------|

PM PM PM PM PM PM PM PM PM PM PM PM
E S S S S S S E S S S S S S
 
 ---------------------------------------------|
 ---------------------------------------------|
 ---------------------------------------------|
 ---------------------------------------------|
 --10--10-10-10-10-10-10-9--9--9--9--9--9--9--|
 ---------------------------------------------|

W E E E E Q E E
 
 -------------------|-------------------------|
 -------------------|-------------------------|
 -------------------|--5--7--7--5--7-------5--|
 -------------------|-------------------7-----|
 --7----------------|-------------------------|
 -------------------|-------------------------|

E E E E Q E E E E E E Q E E
 
 -------------------------|-------------------------|
 -------------------------|-------------------------|
 --5--7--7--5--7-------5--|--5--7--7--5--7-------5--|
 -------------------7-----|-------------------7-----|
 -------------------------|-------------------------|
 -------------------------|-------------------------|

[E] [E] [E] [E] [E] [E] [E] [E] [B] [B]  
 
 --5-----------------------|--------------------|
 -----8--6--5--3--1--------|--------------------|
 --------------------3--2--|--------------------|
 --------------------------|--------------------|
 --------------------------|--3--------5--------|
 --------------------------|--1--------3--------|

[B] [B] [B] [B]  
 
 --------------------|--------------------|
 --------------------|--------------------|
 --------------------|--------------------|
 --5--------7--------|--3--------5--------|
 --3--------5--------|--1--------3--------|
 --------------------|--------------------|

[B] [B] [B] [B]  
 
 --------------------|--------------------|
 --------------------|--------------------|
 --------------------|--------------------|
 --2--------7--------|--------------------|
 --0--------5--------|--3--------5--------|
 --------------------|--1--------3--------|

[B] [B] [B] [B]  
 
 --------------------|--------------------|
 --------------------|--------------------|
 --------------------|--------------------|
 --5--------7--------|--3--------5--------|
 --3--------5--------|--1--------3--------|
 --------------------|--------------------|

[B] [B] [B] [B]  
 
 --------------------|--------------------|
 --------------------|--------------------|
 --------------------|--------------------|
 --2--------7--------|--------------------|
 --0--------5--------|--3--------5--------|
 --------------------|--1--------3--------|

[B] [B] [B] [B]  
 
 --------------------|--------------------|
 --------------------|--------------------|
 --------------------|--------------------|
 --5--------7--------|--3--------5--------|
 --3--------5--------|--1--------3--------|
 --------------------|--------------------|

[B] [B] [B] [B]  
 
 --------------------|--------------------|
 --------------------|--------------------|
 --------------------|--------------------|
 --2--------7--------|--------------------|
 --0--------5--------|--3--------5--------|
 --------------------|--1--------3--------|

[B] [B] [B] [B]  
 
 --------------------|--------------------|
 --------------------|--------------------|
 --------------------|--------------------|
 --5--------7--------|--3--------5--------|
 --3--------5--------|--1--------3--------|
 --------------------|--------------------|

H H W
 
 --------------------|-------------------|
 --------------------|-------------------|
 --------------------|-------------------|
 --2--------7--------|--2----------------|
 --0--------5--------|--0----------------|
 --------------------|-------------------|

W W
 
 -------------------|-------------------|
 -------------------|-------------------|
 -------------------|-------------------|
 --7----------------|--5----------------|
 --5----------------|--3----------------|
 -------------------|-------------------|

W W
 
 -------------------|-------------------|
 -------------------|-------------------|
 -------------------|-------------------|
 --3----------------|-------------------|
 --3----------------|--5----------------|
 --1----------------|--3----------------|

W W
 
 -------------------|-------------------|
 -------------------|-------------------|
 -------------------|-------------------|
 --7----------------|--9----------------|
 --5----------------|--7----------------|
 -------------------|-------------------|

W Q Q Q Q
 
 -------------------|----------------------|
 -------------------|----------------------|
 -------------------|----------------------|
 --7----------------|--2-------------------|
 --5----------------|--0----0----0----0----|
 -------------------|----------------------|

Q Q Q Q Q Q Q Q
 
 ----------------------|----------------------|
 ----------------------|----------------------|
 ----------------------|----------------------|
 --7-------------------|--5-------------------|
 --5----5----5----5----|--3----3----3----3----|
 ----------------------|----------------------|

Q Q Q Q Q Q Q Q
 
 ----------------------|----------------------|
 ----------------------|----------------------|
 --5-------------------|----------------------|
 --3----3----3----3----|----------------------|
 ----------------------|--5-------------------|
 ----------------------|--3----3----3----3----|

Q Q Q Q Q Q Q Q
 
 ----------------------|----------------------|
 ----------------------|----------------------|
 ----------------------|----------------------|
 --7-------------------|----------------------|
 --5----5----5----5----|--2-------------------|
 ----------------------|--0----0----0----0----|

Q Q Q Q E E E E E E E E
 
 ----------------------|--------------------------|
 ----------------------|--------------------------|
 ----------------------|--------------------------|
 --7-------------------|--2-----------------------|
 --5----5----5----5----|--0--0--0--0--0--0--0--0--|
 ----------------------|--------------------------|

[E] [E] [E] [E] [E] [E] [E] [E] [E] [E] [E] [E] [E] [E] [E] [E]  
 
 --------------------------|--------------------------|
 --------------------------|--------------------------|
 --------------------------|--------------------------|
 --3-----------7-----------|--5-----------------------|
 --1--1--1--1--5--5--5--5--|--3--3--3--3--3--3--3--3--|
 --------------------------|--------------------------|

[E] [E] [E] [E] [E] [E] [E] [E] [E] [E] [E] [E] [E] [E] [E] [E]  
 
 --------------------------|--------------------------|
 --------------------------|--------------------------|
 --5-----------------------|--------------------------|
 --3--3--3--3--2-----------|--------------------------|
 --------------0--0--0--0--|--5-----------------------|
 --------------------------|--3--3--3--3--3--3--3--3--|

[E] [E] [E] [E] [E] [E] [E] [E] [E] [E] [E] [E] [E] [E] [E] [E]  
 
 --------------------------|--------------------------|
 --------------------------|--------------------------|
 --------------------------|--------------------------|
 --7-----------------------|--5-----------------------|
 --5--5--5--5--1--1--1--1--|--3--3--3--3--3--3--3--3--|
 --------------------------|--------------------------|

H H Q E E Q E E
 
 --------------------|------------------------|
 --------------------|------------------------|
 --7--------7--------|------------------------|
 --7--------7--------|--2----------2----------|
 --5--------5--------|--0----0--0--0----0--0--|
 --------------------|------------------------|

Q E E Q E E Q E E Q E E
 
 ------------------------|------------------------|
 ------------------------|------------------------|
 ------------------------|------------------------|
 --3----------7----------|--5----------5----------|
 --1----1--1--5----5--5--|--3----3--3--3----3--3--|
 ------------------------|------------------------|

Q E E Q E E Q E E Q E E
 
 ------------------------|------------------------|
 ------------------------|------------------------|
 --5---------------------|------------------------|
 --3----3--3--2----------|------------------------|
 -------------0----0--0--|--5----------5----------|
 ------------------------|--3----3--3--3----3--3--|

Q E E Q E E Q E E Q E E
 
 ------------------------|------------------------|
 ------------------------|------------------------|
 ------------------------|------------------------|
 --7----------3----------|--5----------5----------|
 --5----5--5--1----1--1--|--3----3--3--3----3--3--|
 ------------------------|------------------------|

H H Q S S S S S S S S S S S S
 
 --------------------|-------------------------------|
 --------------------|-------------------------------|
 --7--------7--------|-------------------------------|
 --7--------7--------|--2----------------------------|
 --5--------5--------|--0----0-0-0-0-0-0-0-0-0-0-0-0-|
 --------------------|-------------------------------|

Q S S S S Q S S S S
 
 ----------------------------|
 ----------------------------|
 ----------------------------|
 --3------------7------------|
 --1----1-1-1-1-5----5-5-5-5-|
 ----------------------------|

Q S S S S S S S S S S S S
 
 -------------------------------|
 -------------------------------|
 -------------------------------|
 --5----------------------------|
 --3----3-3-3-3-3-3-3-3-3-3-3-3-|
 -------------------------------|

Q S S S S Q S S S S
 
 ----------------------------|
 ----------------------------|
 --5-------------------------|
 --3----3-3-3-3-2------------|
 ---------------0----0-0-0-0-|
 ----------------------------|

Q S S S S S S S S S S S S
 
 -------------------------------|
 -------------------------------|
 -------------------------------|
 -------------------------------|
 --5----------------------------|
 --3----3-3-3-3-3-3-3-3-3-3-3-3-|

Q S S S S S S S S S S S S
 
 -------------------------------|
 -------------------------------|
 -------------------------------|
 --7----------------------------|
 --5----5-5-5-5-5-5-1-1-1-1-1-1-|
 -------------------------------|

Q S S S S S S S S S S S S H H
 
 -------------------------------|--------------------|
 -------------------------------|--------------------|
 -------------------------------|--7--------7--------|
 --5----------------------------|--7--------7--------|
 --3----3-3-3-3-3-3-3-3-3-3-3-3-|--5--------5--------|
 -------------------------------|--------------------|

[E] [E] [E] [E] [E] [E] [E] [E] [E] [E] [E] [E] [E] [E] [E] [E]  
 
 --------------------------|--------------------------|
 --------------------------|--------------------------|
 --------------------------|--------------------------|
 --2-----------------------|--3-----------7-----------|
 --0--0--0--0--0--0--0--0--|--1--1--1--1--5--5--5--5--|
 --------------------------|--------------------------|

[E] [E] [E] [E] [E] [E] [E] [E] [E] [E] [E] [E] [E] [E] [E] [E]  
 
 --------------------------|--------------------------|
 --------------------------|--------------------------|
 --------------------------|--5-----------------------|
 --5-----------------------|--3--3--3--3--2-----------|
 --3--3--3--3--3--3--3--3--|--------------0--0--0--0--|
 --------------------------|--------------------------|

[E] [E] [E] [E] [E] [E] [E] [E] [E] [E] [E] [E] [E] [E] [E] [E]  
 
 --------------------------|--------------------------|
 --------------------------|--------------------------|
 --------------------------|--------------------------|
 --------------------------|--7-----------------------|
 --5-----------------------|--5--5--5--5--1--1--1--1--|
 --3--3--3--3--3--3--3--3--|--------------------------|

[B] [B] [B] [B]  
 
 --------------------|---------------------|-----------||
 --------------------|---------------------|-----------||
 --------------------|-----------7\--------|-----------||
 --3--------5--------|--7--------7\--------|-----------||
 --1--------3--------|--5--------5\--------|-----------||
 --------------------|---------------------|-----------||


Important: The song above is NOT stored on the Chordie server. The original song is hosted at www.guitaretab.com. Chordie works as a search engine and provides on-the-fly formatting. Chordie does not index songs against artists'/composers' will. To remove this song please click here.

Text color:
Chord color:
Chord grids: 
Font size:    
Page size: 

B E
Rate #1 of 2 versions

Jango Player

Login - add to songbook

SHARE PAGE  



You need to log in to post comments