Guitar Tabs, Chords and Lyrics
Server problems seems to be fixed. Chordie has been experiencing problems with songs disappearing. These issues now seems to be fixed, but still verifying the fix. If you find anything strange, please email admin@chordie.com.


Chief Rebel Angel  Entombed

As recorded by Entombed
(From the 2004 Album MORNING STAR)
Transcribed by The Foreverlorn
Gtr I (C F Bb Eb G C) - 'Acoustic'
Gtr II (C F Bb Eb G C) - 'Distortion 1'
Gtr III (C F Bb Eb G C) - 'Distortion 2'
Gtr IV (C F Bb Eb G C) - 'Piano 1'
Gtr V (C F Bb Eb G C) - 'Piano 2'
Gtr VI (C F Bb Eb G C) - 'Distortion 3'
Intro Acoustic/Piano Intro
Q=110
N.C. F5
[4/4] Gtrs I, IV
Wx10 H Q. E +Q H. H Q. E +Q Q H
 
 |-------------||-------------|--------------|-------------|-----------------|
 |-------------||-------------|--------------|-------------|-----------------|
 |-------------||-------------|--------------|-------------|-----------------|
 |-------------||-------------|------2-------|-------------|------2----------|
 |-------------||------2----1-|-(1)----------|------2----1-|-(1)-------------|
 |-------------||-0-----------|--------------|-0-----------|-----------------|

|
| Gtrs II, III
| Wx10 W W W H E E Q
 
 |-------------||-------------|--------------|-------------|-----------------|
 |-------------||-------------|--------------|-------------|-----------------|
 |-------------||-------------|--------------|-------------|-----------------|
 |-------------||-------------|--------------|-------------|---------3-3-----|
 |-------------||-------------|--------------|-------------|---------3-3-----|
 |-------------||-------------|--------------|-------------|---------1-1-----|

N.C. F5G5
Gtrs I, IV
H Q. E +Q H. H Q. E +Q Q H
 
 |-------------|----------------------|----------------|----------------|
 |-------------|----------------------|----------------|----------------|
 |-------------|----------------------|----------------|----------------|
 |-------------|------2---------------|----------------|------2---------|
 |------2----1-|-(1)------------------|---------2----1-|-(1)------------|
 |-0-----------|----------------------|---0------------|----------------|

|
| Gtr V
| W H E S S Q +W W
 
 |-------------|------------------24--|-(24)-----------|----------------|
 |-------------|------------24-23-----|----------------|----------------|
 |-------------|----------------------|----------------|----------------|
 |-------------|----------------------|----------------|----------------|
 |-------------|----------------------|----------------|----------------|
 |-------------|----------------------|----------------|----------------|

|
| Gtrs II, III
| W W W H E E Q
 
 |-------------|----------------------|----------------|----------------|
 |-------------|----------------------|----------------|----------------|
 |-------------|----------------------|----------------|----------------|
 |-------------|----------------------|----------------|---------3-5----|
 |-------------|----------------------|----------------|---------3-5----|
 |-------------|----------------------|----------------|---------1-3----|

N.C. F5
H Q. E +Q H. H Q. E +Q Q H
 
 |-------------|----------------------|----------------|----------------|
 |-------------|----------------------|----------------|----------------|
 |-------------|----------------------|----------------|----------------|
 |-------------|------2---------------|----------------|------2---------|
 |------2----1-|-(1)------------------|---------2----1-|-(1)------------|
 |-0-----------|----------------------|---0------------|----------------|

|
| W H E S S Q +W W
 
 |-------------|------------------24--|-(24)-----------|----------------|
 |-------------|------------24-23-----|----------------|----------------|
 |-------------|----------------------|----------------|----------------|
 |-------------|----------------------|----------------|----------------|
 |-------------|----------------------|----------------|----------------|
 |-------------|----------------------|----------------|----------------|

|
| W +W +W +H E E Q
 
 |-------------|----------------------|----------------|----------------|
 |-------------|----------------------|----------------|----------------|
 |-------------|----------------------|----------------|----------------|
 |-2-----------|-(2)------------------|--(2)-----------|-(2)-----3-3----|
 |-2-----------|-(2)------------------|--(2)-----------|-(2)-----3-3----|
 |-0-----------|-(0)------------------|--(0)-----------|-(0)-----1-1----|

N.C. F5G5
H Q. E +Q H. H Q. E +Q Q H
 
 |-------------|----------------------|----------------|----------------|
 |-------------|----------------------|----------------|----------------|
 |-------------|----------------------|----------------|----------------|
 |-------------|------2---------------|----------------|------2---------|
 |------2----1-|-(1)------------------|---------2----1-|-(1)------------|
 |-0-----------|----------------------|---0------------|----------------|

|
| W H E S S Q +W W
 
 |-------------|------------------24--|-(24)-----------|----------------|
 |-------------|------------24-23-----|----------------|----------------|
 |-------------|----------------------|----------------|----------------|
 |-------------|----------------------|----------------|----------------|
 |-------------|----------------------|----------------|----------------|
 |-------------|----------------------|----------------|----------------|

|
| W W W H E E Q
 
 |-------------|----------------------|----------------|----------------|
 |-------------|----------------------|----------------|----------------|
 |-------------|----------------------|----------------|----------------|
 |-------------|----------------------|----------------|---------3-5----|
 |-------------|----------------------|----------------|---------3-5----|
 |-------------|----------------------|----------------|---------1-3----|

Break
Q=150
1[E5]2/8
Gtr II
 
 PM---------------------------------------------------------|

[E] [E] [E] [E] [E] [E] [E] [E] [E] [E] [E] [E] [E] [E] [E] [E] [E] [E] [E] [E] [E] [E] [E] [E]  
 
 |------------------------------|-------------------------------|
 |------------------------------|-------------------------------|
 |------------------------------|-------------------------------|
 |-9-------9------9------9------|--9-------9------9------9------|
 |----10-7---10-7---10-7---10-7-|-----10-7---10-7---10-7---10-7-|
 |------------------------------|-------------------------------|

|
| Gtr III
| W. +W.
 
 |------------------------------|-------------------------------|
 |------------------------------|-------------------------------|
 |------------------------------|-------------------------------|
 |-2----------------------------|-(2)---------------------------|
 |-2----------------------------|-(2)---------------------------|
 |-0----------------------------|-(0)---------------------------|

[E5]  
 
 PM---------------|

[E] [E] [E] [E] [E] [E] [E] [E] [E] [E] [E] [E] [E] [E] [E] [E] [E] [E] [E] [E] [E] [E] [E] [E]  
 
 |-------------------------------|-------------------------------|
 |-------------------------------|-------------------------------|
 |-------------------------------|-------------------------------|
 |--9-------9------9------9------|--9-------9------9------9------|
 |-----10-7---10-7---10-7---10-7-|-----10-7---10-7---10-7---10-7-|
 |-------------------------------|-------------------------------|

|
| +W. +W.
 
 |-------------------------------|-------------------------------|
 |-------------------------------|-------------------------------|
 |-------------------------------|-------------------------------|
 |-(2)---------------------------|-(2)---------------------------|
 |-(2)---------------------------|-(2)---------------------------|
 |-(0)---------------------------|-(0)---------------------------|

Chorus
N.C. G5/D N.C. F#5/C# N.C. F5/C
12/8
E S S E E E E E S S E E E E E S S E E E E E S S E E E E
 
 ||---------------------------------|------------------------------------||
 ||o--------------------------------|-----------------------------------o||
 ||----------9-9-9---------12-12-12-|---------11-11-11---------10-10-10--||
 ||---------------------------------|------------------------------------||
 ||o---------7-7-7---------10-10-10-|----------9--9--9----------8--8--8-o||
 ||--0-0-0-0-------0-0-0-0----------|-0-0-0-0----------0-0-0-0-----------||

|
| E S S E E E E E S S E E E E E S S E E E E E S S E E E E
 
 ||---------------------------------|------------------------------------||
 ||o--------------------------------|-----------------------------------o||
 ||---------------------------------|------------------------------------||
 ||---------------------------------|------------------------------------||
 ||o---------7-7-7---------10-10-10-|----------9--9--9----------8-----8-o||
 ||--0-0-0-0-0-0-0-0-0-0-0-10-10-10-|-0-0-0-0--9--9--9-0-0-0-0--8--0--8--||

E5 N.C. G5/D
Gtr VI
H. H.
 
 ||--/19--------------/12-----------------|
 ||o--------------------------------------|
 ||---------------------------------------|
 ||---------------------------------------|
 ||o--------------------------------------|
 ||---------------------------------------|

|
| Gtrs II, III
| E S S E E E E E S S E E E E
 
 ||---------------------------------------|
 ||o--------------------------------------|
 ||-------------9-9-9------------12-12-12-|
 ||----2----------------------------------|
 ||o---2--------7-7-7------------10-10-10-|
 ||----0--0-0-0-0-0-0---0--0-0-0-10-10-10-|

N.C. F#5/C# N.C. F5/C
H. H.
 
 |-/22-----------------/17-----------------||
 |----------------------------------------o||
 |-----------------------------------------||
 |-----------------------------------------||
 |----------------------------------------o||
 |-----------------------------------------||

|
| E S S E E E E E S S E E E E
 
 |-----------------------------------------||
 |----------------------------------------o||
 |------------11-11-11------------10---10--||
 |-----------------------------------------||
 |-------------9--9--9-------------8----8-o||
 |---0--0-0-0--9--9--9---0--0-0-0--8-0--8--||

Break #2
N.C.
[4/4] W +W
 
 |-19--------|-(19)--------|
 |-----------|-------------|
 |-----------|-------------|
 |-----------|-------------|
 |-----------|-------------|
 |-----------|-------------|

|
| W +W
 
 |-----------|-------------|
 |-----------|-------------|
 |--9--------|--(9)--------|
 |-----------|-------------|
 |--7--------|--(7)--------|
 |--0--------|--(0)--------|

TPTPTPTPTPTPTPTPTPTPTPTPTPTPTPTPTPTPTPTPTPTPTPTPTPTPTPTPTPTPTPTP
T T T T T T T T T T T T T T T T T T T T T T T T T T T T T T T T
 
 |-------------------------------------------------------------------|
 |-------------------------------------------------------------------|
 |-------------------------------------------------------------------|
 |-------------------------------------------------------------------|

|-xSxSxSxSxSxSxSxSxSxSxSxSxSxSxSx-xSxSxSxSxSxSxSxSxSxSxSxSxSxSxSx---|
 
 |-------------------------------------------------------------------|

|
| TPTPTPTPTPTPTPTPTPTPTPTPTPTPTPTPTPTPTPTPTPTPTPTPTPTPTPTPTPTPTPTP
| T T T T T T T T T T T T T T T T T T T T T T T T T T T T T T T T
 
 |-------------------------------------------------------------------|
 |-------------------------------------------------------------------|
 |-------------------------------------------------------------------|
 |-------------------------------------------------------------------|
 |-------------------------------------------------------------------|

|-xSxSxSxSxSxSxSxSxSxSxSxSxSxSxSx-xSxSxSxSxSxSxSxSxSxSxSxSxSxSxSx---|
Verse
$
N.C.
12/8
Gtrs II, III
 
 PM--------------------------------------------------------------|

E S S E E S S E E S S E E S S E E S S E E S S E E S S E E S S E
 
 ||----------------------------------|----------------------------------|
 ||o---------------------------------|----------------------------------|
 ||----------------------------------|----------------------------------|
 ||----------------------------------|----------------------------------|
 ||o-2-------2-------2-------2-------|-1-------1-------1-------1-----3--|
 ||----3-3-0---3-3-0---3-3-0---3-3-0-|---3-3-0---3-3-0---3-3-0---3-3----|

N.C.
 
 PM--------------------------------------------------------------|

E S S E E S S E E S S E E S S E E S S E E S S E E S S E E S S E
 
 |---------------------------------|----------------------------------||
 |---------------------------------|---------------------------------o||
 |---------------------------------|----------------------------------||
 |---------------------------------|----------------------------------||
 |-2-------2-------2-------2-------|-1-------1-------2-------1-----3-o||
 |---3-3-0---3-3-0---3-3-0---3-3-0-|---3-3-0---3-3-0---3-3-0---3-3----||

Interlude
1.
[F#5] [E5F#G5F5] [F#5] [E5F#G5F5E5F5]  
 
 PM----| PM----------| PM----| PM----------| PM|

E S S S S E S S S S E E E Q. E S S S S E S S S S E E E E E E
 
 ||---------------------------------|----------------------------------||
 ||o--------------------------------|---------------------------------o||
 ||---------------------------------|----------------------------------||
 ||--4---------4---------------3----|-4---------4-------------------3--||
 ||o-4---------4---------2-4-5-3----|-4---------4---------2-4-5-3-2-3-o||
 ||--2-2-2-2-2-2-2-2-2-2-0-2-3-1----|-2-2-2-2-2-2-2-2-2-2-0-2-3-1-0-1--||

2.
F#5 N.C.
 
 PM----| PM----|

E S S S S E S S S S E E E E E E
 
 |------------------------------------|
 |------------------------------------|
 |------------------------------------|
 |-4---------4------------------------|
 |-4---------4------------------------|
 |-2-2-2-2-2-2-2-2-2-2-6-5-4-6-5-3----|

Chorus
D.S.
N.C. G5/D N.C. F#5/C# N.C. F5/C
Gtr II
E S S E E E E E S S E E E E E S S E E E E E S S E E E E 4x
 
 ||---------------------------------|------------------------------------||
 ||o--------------------------------|-----------------------------------o||
 ||----------9-9-9---------12-12-12-|---------11-11-11---------10-10-10--||
 ||---------------------------------|------------------------------------||
 ||o---------7-7-7---------10-10-10-|----------9--9--9----------8--8--8-o||
 ||--0-0-0-0-------0-0-0-0----------|-0-0-0-0----------0-0-0-0-----------||

|
| Gtr III
| E S S E E E E E S S E E E E E S S E E E E E S S E E E E 4x
 
 ||---------------------------------|------------------------------------||
 ||o--------------------------------|-----------------------------------o||
 ||---------------------------------|------------------------------------||
 ||---------------------------------|------------------------------------||
 ||o---------7-7-7---------10-10-10-|----------9--9--9----------8-----8-o||
 ||--0-0-0-0-0-0-0-0-0-0-0-10-10-10-|-0-0-0-0--9--9--9-0-0-0-0--8--0--8--||

Interlude #2
N.C.
H. H. H. H. H. H.
 
 |-------------------|------------------|-----------------|
 |-------------------|------------------|-----------------|
 |-------------------|------------------|-----------------|
 |-------------------|------------------|-----------------|
 |-/7-------10-------|------------------|--7-------10-----|
 |-------------------|--9-------6-------|-----------------|

|
| W. +W. +W.
 
 |-------------------|------------------|-----------------|
 |-------------------|------------------|-----------------|
 |-------------------|------------------|-----------------|
 |-------------------|------------------|-----------------|
 |-/7----------------|-(7)--------------|-(7)-------------|
 |-------------------|------------------|-----------------|

N.C.
W. +W. +W.
 
 |----------------|--------------------|-----------------|
 |----------------|--------------------|-----------------|
 |----------------|--------------------|-----------------|
 |----------------|--------------------|-----------------|
 |-13-------------|-(13)---------------|-(13)------------|
 |----------------|--------------------|-----------------|

|
| +W. H. H. H. H.
 
 |----------------|--------------------|-----------------|
 |----------------|--------------------|-----------------|
 |----------------|--------------------|-----------------|
 |----------------|--------------------|-----------------|
 |-(7)------------|--/7-------10-------|-----------------|
 |----------------|--------------------|---9-------6-----|

N.C.
+W. +W. H. H.
 
 |--------------------|-----------------|------------------|
 |--------------------|-----------------|------------------|
 |--------------------|-----------------|------------------|
 |--------------------|-----------------|------------------|
 |-(13)---------------|-(13)------------|--/7-------10-----|
 |--------------------|-----------------|------------------|

|
| H. H. W. +W.
 
 |--------------------|-----------------|------------------|
 |--------------------|-----------------|------------------|
 |--------------------|-----------------|------------------|
 |--------------------|-----------------|------------------|
 |---7-------10-------|--13-------------|-(13)-------------|
 |--------------------|-----------------|------------------|

N.C.
H. H. H. H +E E W.
 
 |-------------------|-------------------------|---------|
 |-------------------|-------------------------|---------|
 |-------------------|-------------------------|---------|
 |-------------------|-------------------------|---------|
 |-------------------|---7-------10----(10)-13-|--13-----|
 |---9-------6-------|-------------------------|---------|

|
| +W. +W. +W.
 
 |-------------------|-------------------------|---------|
 |-------------------|-------------------------|---------|
 |-------------------|-------------------------|---------|
 |-------------------|-------------------------|---------|
 |-(13)--------------|-(13)--------------------|-(13)----|
 |-------------------|-------------------------|---------|

Interlude #2 (Variation)
[E5/B]Gtrs II,[F5/C] III[C#5/Ab] [Bb5]
H. H. H. H.
 
 |------------------|---------------|
 |------------------|---------------|
 |------------------|---------------|
 |-9-------10-------|-6-------8-----|
 |-7--------8-------|-4-------8-----|
 |-7--------8-------|-4-------6-----|

E5/B F5/C G5 N.C.
TPTPTPTPTPTPTPTPTPTPTPTPTPTPTPTPTPTPTPTPTPTPTPTP
H. H. H. T T T T T T T T T T T T T T T T T T T T T T T T
 
 |------------------|---------------------------------------------------------|
 |------------------|---------------------------------------------------------|
 |------------------|---------------------------------------------------------|
 |-9-------10-------|-5-------------------------------------------------------|
 |-7--------8-------|-5-------------------------------------------------------|
 |-7--------8-------|-3-------xSxSxSxSxSxSxSxSxSxSxSxSxSxSxSxSxSxSxSxSxSxSxSx-|

Verse (Break)
N.C.
Gtr II
 
 PM--------------------------------------------------------------|

E S S E E S S E E S S E E S S E E S S E E S S E E S S E E S S E
 
 ||----------------------------------|---------------------------------|
 ||o---------------------------------|---------------------------------|
 ||----------------------------------|---------------------------------|
 ||----------------------------------|---------------------------------|
 ||o-2-------2-------2-------2-------|-1-------1-------1-------1-----3-|
 ||----3-3-0---3-3-0---3-3-0---3-3-0-|---3-3-0---3-3-0---3-3-0---3-3---|
 PM--------------------------------------------------------------|

E S S E E S S E E S S E E S S E E S S E E S S E E S S E E S S E
 
 |---------------------------------|----------------------------------||
 |---------------------------------|---------------------------------o||
 |---------------------------------|----------------------------------||
 |---------------------------------|----------------------------------||
 |-2-------2-------2-------2-------|-1-------1-------2-------1-----3-o||
 |---3-3-0---3-3-0---3-3-0---3-3-0-|---3-3-0---3-3-0---3-3-0---3-3----||

Chorus
N.C. G5/D
Gtr VI
H. H.
 
 ||--/19--------------/12-----------------|
 ||o--------------------------------------|
 ||---------------------------------------|
 ||---------------------------------------|
 ||o--------------------------------------|
 ||---------------------------------------|

|
| Gtr II
| E S S E E E E E S S E E E E
 
 ||---------------------------------------|
 ||o--------------------------------------|
 ||-------------9-9-9------------12-12-12-|
 ||---------------------------------------|
 ||o------------7-7-7------------10-10-10-|
 ||----0--0-0-0---------0--0-0-0----------|

|
| Gtr III
| E S S E E E E E S S E E E E
 
 ||---------------------------------------|
 ||o--------------------------------------|
 ||---------------------------------------|
 ||---------------------------------------|
 ||o------------7-7-7------------10-10-10-|
 ||----0--0-0-0-0-0-0---0--0-0-0-10-10-10-|

N.C. F#5/C# N.C. F5/C
H. H.
 
 |-/22-----------------/17-----------------|
 |-----------------------------------------|
 |-----------------------------------------|
 |-----------------------------------------|
 |-----------------------------------------|
 |-----------------------------------------|

|
| E S S E E E E E S S E E E E
 
 |-----------------------------------------|
 |-----------------------------------------|
 |------------11-11-11------------10-10-10-|
 |-----------------------------------------|
 |-------------9--9--9-------------8--8--8-|
 |---0--0-0-0------------0--0-0-0----------|

|
| E S S E E E E E S S E E E E
 
 |-----------------------------------------|
 |-----------------------------------------|
 |-----------------------------------------|
 |-----------------------------------------|
 |-------------9--9--9-------------8-----8-|
 |---0--0-0-0--9--9--9---0--0-0-0--8--0--8-|

G5/D N.C. F#5/C# N.C. F5/C
W. +W.
 
 |-19-------------------------------|-(19)-----------------------------------||
 |----------------------------------|---------------------------------------o||
 |----------------------------------|----------------------------------------||
 |----------------------------------|----------------------------------------||
 |----------------------------------|---------------------------------------o||
 |----------------------------------|----------------------------------------||

|
| E S S E E E E E S S E E E E E S S E E E E E S S E E E E
 
 |----------------------------------|----------------------------------------||
 |----------------------------------|---------------------------------------o||
 |-----------9-9-9---------12-12-12-|------------11-11-11---------10-10-10---||
 |----------------------------------|----------------------------------------||
 |-----------7-7-7---------10-10-10-|-------------9--9--9----------8--8--8--o||
 |--0--0-0-0-------0-0-0-0----------|---0--0-0-0----------0-0-0-0------------||

|
| E S S E E E E E S S E E E E E S S E E E E E S S E E E E
 
 |----------------------------------|----------------------------------------||
 |----------------------------------|---------------------------------------o||
 |----------------------------------|----------------------------------------||
 |----------------------------------|----------------------------------------||
 |-----------7-7-7---------10-10-10-|-------------9--9--9----------8-----8--o||
 |--0--0-0-0-0-0-0-0-0-0-0-10-10-10-|---0--0-0-0--9--9--9-0-0-0-0--8--0--8---||

Outro
N.C. G5/D N.C. F#5/C# N.C. F5/C
Gtr II
E E E E E E E S S E E E E E S S E E E E E S S E E E E
 
 |------------------------------|-----------------------------------|
 |------------------------------|-----------------------------------|
 |-------9-9-9---------12-12-12-|---------11-11-11---------10-10-10-|
 |------------------------------|-----------------------------------|
 |-2-----7-7-7---------10-10-10-|----------9--9--9----------8--8--8-|
 |---3-0-------0-0-0-0----------|-0-0-0-0----------0-0-0-0----------|

|
| Gtr III
| E E E E E E E S S E E E E E S S E E E E E S S E E E E
 
 |------------------------------|-----------------------------------|
 |------------------------------|-----------------------------------|
 |------------------------------|-----------------------------------|
 |------------------------------|-----------------------------------|
 |-2-----7-7-7---------10-10-10-|----------9--9--9----------8-----8-|
 |---3-0-0-0-0-0-0-0-0-10-10-10-|-0-0-0-0--9--9--9-0-0-0-0--8--0--8-|

N.C. G5/D
E S S E E E E E S S E E E E
 
 |--------------------------------|
 |--------------------------------|
 |---------9-9-9---------12-12-12-|
 |--------------------------------|
 |---------7-7-7---------10-10-10-|
 |-0-0-0-0-------0-0-0-0----------|

|
| E S S E E E E E S S E E E E
 
 |--------------------------------|
 |--------------------------------|
 |--------------------------------|
 |--------------------------------|
 |---------7-7-7---------10-10-10-|
 |-0-0-0-0-0-0-0-0-0-0-0-10-10-10-|

N.C. F#5/C# N.C. E5
 
 PM------------|

E S S E E E E E S S E E S S E E W Q.
 
 |----------------------------------|-----------------*|
 |----------------------------------|-----------------*|
 |---------11-11-11-----------------|-----------------*|
 |----------------------------------|-2---------------*|
 |----------9--9--9-2-------2-------|-2---------------*|
 |-0-0-0-0------------3-3-0---3-3-0-|-0---------------*|

|
 
 | PM------------|

| E S S E E E E E S S E E S S E E W Q.
 
 |----------------------------------|-----------------*|
 |----------------------------------|-----------------*|
 |----------------------------------|-----------------*|
 |----------------------------------|-2---------------*|
 |----------9--9--9-2-------2-------|-2---------------*|
 |-0-0-0-0--9--9--9---3-3-0---3-3-0-|-0---------------*|

Duration Legend
 
 ---------------
 W - whole; H - half; Q - quarter; E - 8th; S - 16th; T - 32nd; X - 64th; a - acciaccatura

+ - note tied to previous; . - note dotted; .. - note double dotted
Uncapitalized letters represent notes that are staccato (1/2 duration)
Irregular groupings are notated above the duration line
Duration letters will always appear directly above the note/fret number it represents the
duration for. Duration letters with no fret number below them represent rests. Multi-
bar rests are notated in the form Wxn, where n is the number of bars to rest for. Low
melody durations appear below the staff
Tablature Legend
 
 ----------------

h - hammer-on
p - pull-off
b - bend
pb - pre-bend
r - bend release (if no number after the r, then release immediately)
/\ - slide into or out of (from/to "nowhere")
s - legato slide
S - shift slide
- natural harmonic
(n) - artificial harmonic
n(n) - tapped harmonic
~ - vibrato
tr - trill
T - tap
TP - trem. picking
PM - palm muting
\n/ - tremolo bar dip; n = amount to dip
\n - tremolo bar down
n/ - tremolo bar up
/n\ - tremolo bar inverted dip
= - hold bend; also acts as connecting device for hammers/pulls
- volume swell (louder/softer)
x - on rhythm slash represents muted slash
o - on rhythm slash represents single note slash
Misc Legend
 
 -----------

| - bar
|| - double bar
||o - repeat start
o|| - repeat end
*| - double bar (ending)
: - bar (freetime)
$ - Segno
& - Coda
Tempo markers - = BPM(8/16=s8/s16), where s8 = swing 8ths, s16 = swing 16ths

Important: The song above is NOT stored on the Chordie server. The original song is hosted at www.guitaretab.com. Chordie works as a search engine and provides on-the-fly formatting. Chordie does not index songs against artists'/composers' will. To remove this song please click here.

Text color:
Chord color:
Chord grids: 
Font size:    
Page size: 

Bb5 E E5 E5/B F#5 F5/C
Rate #1 of 2 versions

Login - add to songbook

SHARE PAGE  



You need to log in to post comments