Guitar Tabs, Chords and Lyrics
Server problems seems to be fixed. Chordie has been experiencing problems with songs disappearing. These issues now seems to be fixed, but still verifying the fix. If you find anything strange, please email admin@chordie.com.


Addiction King   Entombed

 
 D --------n12---------------------n12--n7------------|
 A -----n7----------------------n7--------------------|
 F -n12---------------------n12-----------------------|
 C ---------------------------------------------------|
 G ---------------------------------------------------|
 D ---------------------------------------------------|

 


 


 Riff 1A


 


 

 
 D -15-14-12-12-12-12-12-12-12-12-12-12-12-12-12-12-15-14-12-12-12-12-12-12-12-12-12-12-12-12-12-|
 A ----------12-12-12-12-12-12-12-12-12-12-12-12-------------13-13-13-13-13-13-13-13-13-13-13-13-|
 F ----------12-12-12-12-12-12-12-12-12-12-12-12-------------12-12-12-12-12-12-12-12-12-12-12-12-|
 C ----------------------------------------------------------------------------------------------|
 G ----------------------------------------------------------------------------------------------|
 D ----------------------------------------------------------------------------------------------|

 


 


 Riff 1B


 


 

 
 D -15-14-12-12-12-12-12-12-12-12-12-12-12-12-12-12-15-14-12-12-12-12-12-12-12-12-12-12-12-12-12-12-15-14-12-|
 A ----------12-12-12-12-12-12-12-12-12-12-12-12-------------13-13-13-13-13-13-13-13-13-13-13-13-------------|
 F ----------12-12-12-12-12-12-12-12-12-12-12-12-------------12-12-12-12-12-12-12-12-12-12-12-12-------------|
 C ----------------------------------------------------------------------------------------------------------|
 G ----------------------------------------------------------------------------------------------------------|
 D ----------------------------------------------------------------------------------------------------------|

 


 


 Riff 2


 


 

 
 D -------------------------------------------------------------------------------------------------|
 A -------------------------------------------------------------------------------------------------|
 F -------------------------------------------------------------------------------------------------|
 C -------------------------------------------------------------------------------------------------|
 G -------------------------------------------------------------------------------------------------|
 D -00-00-00-00-00-00-00-00-00-00-00-00-00-00-00-00-00-00-00-00-00-00-00-00-00-00-00-00-00-00-00-00-|
 D -------------------------------------------------8 -8 -8 -8 -8 -8 -8 -8 -8 -8 -8 -8 -8 

 


 -8 -8 -


 

 
 A -------------------------------------------------8 -8 -8 -8 -8 -8 -8 -8 -8 -8 -8 -8 -8 

 


 -8 -8 -


 

 
 F -------------------------------------------------9 -9 -9 -9 -9 -9 -9 -9 -9 -9 -9 -9 -9 

 


 [-9] [-9] [-]  

 
 C -10-10-10-10-10-10-10-10-10-10-10-10-10-10-10-10-10-10-10-10-10-10-10-10-10-10-10-10-10-10-10-10-|
 G -10-10-10-10-10-10-10-10-10-10-10-10-10-10-10-10-10-10-10-10-10-10-10-10-10-10-10-10-10-10-10-10-|
 D -8 -8 -8 -8 -8 -8 -8 -8 -8 -8 -8 -8 -8 -8 -8 -8 -8 -8 -8 -8 -8 -8 -8 -8 -8 -8 -8 -8 -8 

 


 -8 -8 -


 


 

 
 D -------------------------------------------------------------------------------------------------|
 A -------------------------------------------------------------------------------------------------|
 F -------------------------------------------------------------------------------------------------|
 C -------------------------------------------------------------------------------------------------|
 G -------------------------------------------------------------------------------------------------|
 D -00-00-00-00-00-00-00-00-00-00-00-00-00-00-00-00-00-00-00-00-00-00-00-00-00-00-00-00-00-00-00-00-|
 D -------------------------------------------------------------------------------------------------|
 A -------------------------------------------------------------------------------------------------|
 F -------------------------------------------------------------------------------------------------|
 C -10-10-10-10-10-10-10-10-10-10-10-10-10-10-10-10-10-10-10-10-10-10-10-10-10-10-10-10-10-10-10-10-|
 G -10-10-10-10-10-10-10-10-10-10-10-10-10-10-10-10-10-10-10-10-10-10-10-10-10-10-10-10-10-10-10-10-|
 D -8 -8 -8 -8 -8 -8 -8 -8 -8 -8 -8 -8 -8 -8 -8 -8 -8 -8 -8 -8 -8 -8 -8 -8 -8 -8 -8 -8 -8 

 


 -8 -8 -


 


 Riff 3


 


 

 
 D --------------------------------------------------------------------------------------------------------------|
 A --------------------------------------------------------------------------------------------------------------|
 F -4--4--4-3--------------------4--4--4-3--------------------4--4--4-3--------------------4--4--4-3-------------|
 C -4--4--4-3---5--5-5-5-5-------4--4--4-3---5--5-5-5-5-------4--4--4-3---5--5-5-5-5-------4--4--4-3---5---------|
 G -2--2--2-1---5--5-5-5-5-------2--2--2-1---5--5-5-5-5-------2--2--2-1---5--5-5-5-5-------2--2--2-1---5---------|
 D -----------0-3--3-3-3-3-1--0------------0-3--3-3-3-3-1--0------------0-3--3-3-3-3-1--0------------0-3---------|

 


 


 Riff 3A


 


 

 
 D --------------------------------------------------------------------------------------------------------------------|
 A --------------------------------------------------------------------------------------------------------------------|
 F -4--4--4-3--------------------4--4--4-3--------------------4--4--4-3--------------------4--4--4-3-------------------|
 C -4--4--4-3---5--5-5-5-5-------4--4--4-3---5--5-5-5-5-------4--4--4-3---5--5-5-5-5-------4--4--4-3---5--5-5-5-5------|
 G -2--2--2-1---5--5-5-5-5-------2--2--2-1---5--5-5-5-5-------2--2--2-1---5--5-5-5-5-------2--2--2-1---5--5-5-5-5------|
 D -----------0-3--3-3-3-3-1--0------------0-3--3-3-3-3-1--0------------0-3--3-3-3-3-1--0------------0-3--3-3-3-3-1--0-|

 


 


 Riff 4


 


 

 
 D ----------------------------------------------------------------------------------------------------|
 A ----------------------------------------------------------------------------------------------------|
 F ----------------------------------------------------------------------------------------------------|
 C -5--5-5-5-5-5-3---------5--5-5-5-5-5-3---------5--5-5-5-5-5-3---------5--5-5-5-5-5-3--3-3-3-3-3-3-3-|
 G -5--5-5-5-5-5-3---------5--5-5-5-5-5-3---------5--5-5-5-5-5-3---------5--5-5-5-5-5-3--3-3-3-3-3-3-3-|
 D -3--3-3-3-3-3-1---------3--3-3-3-3-3-1---------3--3-3-3-3-3-1---------3--3-3-3-3-3-1--1-1-1-1-1-1-1-|
 D -----------------------------------------------------------|
 A -----------------------------------------------------------|
 F -----------------------------------------------------------|
 C -----------------------------------------------------------|
 G -0-0-0-0-0-0-0-0-0-0-0-0-0-0-0-0-0-0-0-0-0-0-0-0-0-0-0-0-0-|
 D -----------------------------------------------------------|

 


 


 Riff 5


 


 

 
 D ---------------------------------------------------------------|
 A ---------------------------------------------------------------|
 F -------------------------------5-5-5-5-5-5-5-5-5-5-5-5-5-5-5-5-|
 C -2-2-2-2-2-2-2-2-2-2-2-2-2-2-2-5-5-5-5-5-5-5-5-5-5-5-5-5-5-5-5-|
 G -2-2-2-2-2-2-2-2-2-2-2-2-2-2-2-3-3-3-3-3-3-3-3-3-3-3-3-3-3-3-3-|
 D -0-0-0-0-0-0-0-0-0-0-0-0-0-0-0---------------------------------|

 


 


 Riff 5A


 


 

 
 D ---------------------------------------------------------------------------------|
 A ---------------------------------------------------------------------------------|
 F -12-12-12-12-12-12-12-12-12-12-12-12-12-12-12-12-9-9-9-9-9-9-9-9-9-9-9-9-9-9-9-9-|
 C -12-12-12-12-12-12-12-12-12-12-12-12-12-12-12-12-9-9-9-9-9-9-9-9-9-9-9-9-9-9-9-9-|
 G -10-10-10-10-10-10-10-10-10-10-10-10-10-10-10-10-7-7-7-7-7-7-7-7-7-7-7-7-7-7-7-7-|
 D ---------------------------------------------------------------------------------|
 D -------------------------------------------------------------------------------------------------|
 A -------------------------------------------------------------------------------------------------|
 F -5-5-5-5-5-5-5-5-5-5-5-5-5-5-5-5-9-9-9-9-9-9-9-9-9-9-9-9-9-9-9-9---------------------------------|
 C -5-5-5-5-5-5-5-5-5-5-5-5-5-5-5-5-9-9-9-9-9-9-9-9-9-9-9-9-9-9-9-9-8-8-8-8-8-8-8-8-8-8-8-8-8-8-8-8-|
 G -3-3-3-3-3-3-3-3-3-3-3-3-3-3-3-3-7-7-7-7-7-7-7-7-7-7-7-7-7-7-7-7-6-6-6-6-6-6-6-6-6-6-6-6-6-6-6-6-|
 D -----------------------------------------------------------------6-6-6-6-6-6-6-6-6-6-6-6-6-6-6-6-|


Important: The song above is NOT stored on the Chordie server. The original song is hosted at www.guitaretab.com. Chordie works as a search engine and provides on-the-fly formatting. Chordie does not index songs against artists'/composers' will. To remove this song please click here.

This song is displayed as text-only. Transposing and tuning is only available for chordpro-songs.
Rate #1 of 2 versions

Jango Player

Login - add to songbook

SHARE PAGE  



You need to log in to post comments