Guitar Tabs, Chords and Lyrics
Major upgrade!! After one year development the new version of Chordie is now online! Please give feedback.


Breathe  Erasure

Erasure - Breathe (Acoustic version).
In the Key of C.
C (x3555x)
[Am]F [(577555)](x8756x)
[G]Dm [(355233)](x5776x)
 
 -----------------------------------------------

intro
[C-Am]  
 
 ----3----3---3---3-----3---3---3---3-----|
 ---5-5--5-5-5-5-5-5---5-5-5-5-5-5-5-5----|
 -------5---5---5---------5---5---5-------|
 -----------------------------------------| x3
 -3-------------------0-------------------|
 -----------------------------------------|

Twenty-seven times I paint the city in lights
Now I changed my mind
I was living fast now I'm running on empty
 
 -----------------------------------------------

Prechorus:
[C-Am-F-G] x2(repeat every part twice)
[C] [Am] [F] [G]  
 
 -----------|-----------|-----------|----------|
 --------5--|--------5--|-------6---|-------3--|
 ---5--5--5-|---5--5--5-|---5-5--5--|---4-4--4-|
 --5--5----5|--7--7----7|--7-7----7-|--5-5----5|
 -3---------|-----------|-8---------|----------|
 -----------|-5---------|-----------|-3--------|

And I feel yeh I feel
You're gonna go, let me go
 
 -----------------------------------------------

Chorus:
Cx2-Am-F
x2(only this), then:
[C] [Am] [F] [Dm] [Am] [F] [G]  
 
 ----------| |----------|------------|-------------|-----------|------------|-----------|
 -------5--| |-------5--|--------6---|--------6----|--------5--|-------6----|-------3---|
 ---5-5--5-| |---5-5--5-|----5-5--5--|----7-7--7---|----5-5--5-|----5-5-5---|---4-4--4--|
 --5-5----5| |--7-7----7|---7-7----7-|---7-7----7--|---7-7----7|---7-7---7--|--5-5----5-|
 -3--------| |----------|-8----------|--5----------|-----------|-8----------|-----------|
 ----------| |-5--------|------------|-------------|-5---------|------------|-3---------|

Breathe, and I breathe
[Dm-Am-F-G]It's bitter without you I can't live without you
And I'm in love with you
 
 ----------------------------------------------

Stood the test of time
Though I treated you rough you were always kind
I let my head rule my heart now I'm feeling so lonely
And I feel it's the deal
You're letting me go gonna go
 
 ----------------------------------------------

Bridge:
Strum the chords:
[C-Am-Dm-F-G]  
 
 ----------------------------------------------

Repeat all over again...
 
 ----------------------------------------------

Breathe and I breathe
Hollow without you I can't live without you
And I'm in love with you
Breathe I believe
Empty without you I can't live without you
And I'm in love with you
Breathe, and I breathe
It's bitter without you I can't live without you
And I'm in love with you
Breathe I believe
Empty without you I can't live without you
And I'm in love with you
Breathe I believe
I can't live without you I can't live with you
And I'm in love with you..

Important: The song above is NOT stored on the Chordie server. The original song is hosted at www.guitaretab.com. Chordie works as a search engine and provides on-the-fly formatting. Chordie does not index songs against artists'/composers' will. To remove this song please click here.

Text color:
Chord color:
Chord grids: 
Font size:    
Page size: 

Am C Dm F G
Rate #1 of 2 versions

Jango Player

Login - add to songbook

SHARE PAGE  



You need to log in to post comments