Guitar Tabs, Chords and Lyrics
Server problems seems to be fixed. Chordie has been experiencing problems with songs disappearing. These issues now seems to be fixed, but still verifying the fix. If you find anything strange, please email admin@chordie.com.


I Can't Stand It  Eric Clapton

I Can't Stand It
Eric Clapton
Intro:
 
 |----------------------------------------------------------------------|
 |------------------------3------3----------------------------------3---|
 |-----------5--5--5/7----2h4~---2h4----------------5--5--5--7------2h4-|
 |-----0---------------------------------------0------------------------|
 |-0-3-------------------------------------0-3--------------------------|
 |----------------------------------------------------------------------|

You've been [Dm]told, so [Am]maybe it's time that you [G]learned
You've been [Dm]sold, m[Am]aybe it's time that you [G]heard
I can't [Am]stand it, you're [F]fooling a[G]round
Guitar Solo:
 
 |--------------------------------------------------------------------------------------------------|
 |--------------------------------------------------------------------------------------------------|
 |-/10---10p9p7------------7--------------------7----------12b14---14b12p10-12b14--10---------------|
 |--------------10--7--10-----7\5-----5-----/9-----7--5-------------------------------12------------|
 |--------------------------------8------------------------------------------------------10-8-10-10-|
 |--------------------------------------------------------------------------------------------------|
 |------------10---------------------|
 |--------10------10-----------------|
 |-12b14--------------14--12--10-----|
 |--------------------------------12-|
 |-----------------------------------|
 |-----------------------------------|

I can't [Am]stand it, you're [F]running a[G]round
I can't [Am]stand it, you're [F]fooling a[G]round
I can't [Am]stand it, you're [F]fooling a[G]round with my [Am]heart
It's [Dm]time, [Am]time for me to let you [G]go
Ain't no [Dm]crime, no [Am]crime to let your feelings [G]show
Outro:
I can't [Am]stand it, you're [F]fooling a[G]round
I won't [Am]stand it, you're [F]playing a[G]round
I can't [Am]stand it, you're [F]fooling a[G]round
I can't [Am]stand it, you're [F]running a[G]round
I can't [Am]stand it, you're [F]fooling a[G]round
I can't [Am]stand it, you're [F]fooling a[G]round
I can't [Am]stand it, you're [F]fooling a[G]round with my [Am]heart
I can't [Am]stand it, you're [F]fooling a[G]round with my [Am]heart
Guitar Work from 03:21 (Wah-Pedal):
 
 |----------5-------5--------8b10---10--8--5-------------------------------------------15----------|
 |--------------8-----------------------------8--8b10--10---8b10--10--------13---15b17----17b15-13-|
 |-7b9--9---------------------------------------------------------------14-------------------------|
 |-------------------------------------------------------------------------------------------------|
 |-------------------------------------------------------------------------------------------------|
 |-------------------------------------------------------------------------------------------------|
 |-------15-------15--------------------------------------------------------------15-------15-|
 |-15b17----15b17----13------13-15--15b17--15b17--15b17--13----------13-15--15b17----15b17----|
 |----------------------14----------------------------------14----14--------------------------|
 |--------------------------------------------------------------------------------------------|
 |--------------------------------------------------------------------------------------------|
 |--------------------------------------------------------------------------------------------|
 |-------15-------15-------15------------15b17--15b17b15-12----------------------------------|
 |-15b17----15b17----15b17----17b15--------------------------13------------------------------|
 |----------------------------------14----------------------------14-14--------5-------------|
 |-------------------------------------------------------------------------7------7\-----5-7-|
 |-------------------------------------------------------------------------------------7-----|
 |-------------------------------------------------------------------------------------------|
 |--------15\------------|
 |-15b17-----------------|
 |--------------7b9b7----|
 |--------------------7--|
 |-----------------------|
 |-----------------------|


Important: The song above is NOT stored on the Chordie server. The original song is hosted at www.guitaretab.com. Chordie works as a search engine and provides on-the-fly formatting. Chordie does not index songs against artists'/composers' will. To remove this song please click here.

Text color:
Chord color:
Chord grids: 
Font size:    
Page size: 

Am Dm F G
Rate #1 of 1 versions

Login - add to songbook

SHARE PAGE  



You need to log in to post comments