Guitar Tabs, Chords and Lyrics
Server problems seems to be fixed. Chordie has been experiencing problems with songs disappearing. These issues now seems to be fixed, but still verifying the fix. If you find anything strange, please email admin@chordie.com.


Forever Man  Eric Clapton

 
 -------------------------------|
 -------------------------------|
 -------------------------------|
 -------------------------------| x8
 ------3--------3---3--3h5~~~---|
 --3h5-------5------------------|

[Bb] How many [C]times must I [Dm]tell you babe,
[Bb] How many [C]bridges I've [Dm]got to cross?
[Bb] How many [C]times must I [Dm]explain myself
[Bb] Before I can [C]talk to the [Dm]boss,
[Bb] 'Fore I can [C]talk to the [Dm]boss?
(The last Dm is the beginning of the next riff)
[Dm]  
 
 -------------------------------|
 -------------------------------|
 -------------------------------|
 -------------------------------| x4
 ------3--------3---3--3h5~~~---|
 --3h5-------5------------------|

[Bb] How many [C]times must I [Dm]say I love you
[Bb] Before you [C]finally understand[Dm]?
[Bb] Won't you be my [C]forever [Dm]woman?
[Bb] I'll try to be your [C]forever [Dm]man,
[Bb] Try to be your [C]forever [Dm]man.
(The last Dm is the beginning of the next riff)
[Dm]  
 
 -------------------------------|
 -------------------------------|
 -------------------------------|
 -------------------------------| x4
 ------3--------3---3--3h5~~~---|
 --3h5-------5------------------|

First Solo
 
 ---15b---15b----15p13----15b---------------------------15b---13--------------|
 --------------------------------15p13-------13--15------------13h15p13-------|
 -----------------------------------------------------------------------------|
 -----------------------------------------------------------------------------|
 -----------------------------------------------------------------------------|
 -----------------------------------------------------------------------------|
 ----------------------------------------------|
 -------12---12---12---12---12---12-15~~~------|
 --14b----14b--14b--14b--14b--14b--------------|
 ----------------------------------------------|
 ----------------------------------------------|
 ----------------------------------------------|
 -----------------------------------------------------|
 --15p13----------------------------------------------|
 -------14p12--12h14p12----12-------------------------|
 ------------14--------14-----14----14----------------|
 -----------------------------------------------------|
 -----------------------------------------------------|
 --------------15b------------------13~~----------------------|
 -13/15--15p13-------------------------15~~~13h15---13--------|
 -------------------------------------------------------------|
 -------------------------------------------------------------|
 -------------------------------------------------------------|
 -------------------------------------------------------------|
 ---15b---15p13---15b--------------------------|
 -----------------------15p13~~~---------------|
 ----------------------------------------------|
 ----------------------------------------------|
 ----------------------------------------------|
 ----------------------------------------------|

(The last pull off slide is the beginning of the next riff)(Two guitars)
[Dm]  
 
 -------------------------------|
 -------------------------------|
 -------------------------------|
 -------------------------------| x4
 ------3--------3---3--3h5~~~---|
 --3h5-------5------------------|

[Bb] How many [C]times must I [Dm]say I love you
Bb C Dm Riff2(Almost at the start
Before you finally understand? of the next measure)
Bb C Dm Riff3
Won't you be my forever woman?
[Bb] I'll try to be your [C]forever [Dm]man,
[Bb] Try to be your [C]forever [Dm]man.
[Dm]Riff 2
 
 ---------------------------|
 ---------------------------|
 -----12p10--------10-------|
 --12---------12------------|
 ---------------------------|
 ---------------------------|

[Dm]Riff 3
 
 ---------------------------------------------------|
 ---------------------------------------------------|
 -12b--10----12p10---------10--12p10----------------|
 -------------------12-------------12p10--10--------|
 ---------------------------------------12--12p10---|
 ------------------------------------------------12-|

Forever [Bb]man, forever [C]man, forev[Dm]er man.
Forever [Bb]man, forever [C]man, forev[Dm]er man.
Bb C Dm|Riff 4
Try to be your forever man.
Riff 4
 
 ---------------------------------------------------|
 -10----10----10------------------------------------|
 -12b---12b---12b-----------------------------------|
 ---------------------------------------------------|
 ---------------------------------------------------|
 ---------------------------------------------------|

Forever [Bb]man, forever[C] man, foreve[Dm]r man.
Forever [Bb]man, forever[C] man, foreve[Dm]r man.
Forever [Bb]man, forever[C] man, foreve[Dm]r man.
[Bb]Try to be your[C] forever man[Dm].
(This lead is played over the above very quietly)
 
 -----------------------------------------------------|
 -----------------------------------------------------|
 -----12b---12b---12p10--12b---10---------------------|
 ----------------------------------12-----------------|
 -----------------------------------------------------|
 -----------------------------------------------------|
 -----------------------------------------------------|
 ---------------------------------------------10--12b-|
 -------------------------------------10--12----------|
 -----12b--10--------------12p10--12------------------|
 --------------12-------------------------------------|
 -----------------------------------------------------|
 -----------------------------------------------------|
 -------------------------------------------------------|
 ---12p10---------10---10---10---10---10---10---10---10-|
 ---------12---12b--12b--12b--12b--12b--12b--12b--12b---|
 -------------------------------------------------------|
 -------------------------------------------------------|
 -------------------------------------------------------|
 -------------------------------------------------------|
 ----12---12---12---12---12---12---12---12---15b---15b--|
 -14b--14b--14b--14b--14b--14b--14b--14b----------------|
 -------------------------------------------------------|
 -------------------------------------------------------|
 -------------------------------------------------------|
 ---------13--15b--15b----(13)h15p13----------------|
 -15~~------------------------------15--------------|
 ---------------------------------------------------|
 ---------------------------------------------------|
 ---------------------------------------------------|
 ---------------------------------------------------|

[Dm]  
 
 ---------------------------- -----3-------|
 ---------------------------- x3(Then at -3h5---------| the fourth time
 ---------------------------- start the outro--|
 --------------------------------------------------------| (Plays behind Outro and fades
 ------3--------3---3--3h5~~~----------------------------| out at the end of the song)
 --3h5-------5-------------------------------------------|

Outro
 
 --------------------------------------------------------|
 -12b-----12p10--------------------12p10-----------------|
 --------------12br-p10-----------------12p10--10--------|
 ----------------------12--------------------12--12------|
 --------------------------------------------------------|
 --------------------------------------------------------|
 --------------------------------------------------------|
 ----------------------------------------------------------------|
 ------12b--r----14b-14b-14b-14b-14b-14b-14b-14b-14b-14br--------|
 ----------------------------------------------------------------|
 ----------------------------------------------------------------|
 ----------------------------------------------------------------|
 ----------------------------------------------------------------|
 ----------------------------------------|
 -12p10----------------------------------|
 ----------------------12b---12p10--10---|
 ---------------------------------12--12-|
 ----------------------------------------|
 ----------------------------------------|
 ---------------------------------------------------------|
 ---------------------------------------------------------|
 ----(10)--12--p10-------10-------------------------------|
 -(12)-----------------12--12p10--10----------------------|
 -------------------------------12--12p10----10-----------|
 ------------------------------------------------12---10--|
 -----------------------------------------------------------------------|
 -----------------------------------------------------------------------|
 ----------------------12p10--10---12--12b----10---------12p10--12b--10-|
 ---------------------------12---------------------------------12-------|
 -----------------------------------------------------------------------|
 -----------------------------------------------------------------------|
 ------------------------------------------------------------------|
 ----------12p10------------------------------------10b----12b-----|
 ------------------------------------------------------------------|
 ------------------------------------------------------------------|
 ------------------------------------------------------------------|
 ------------------------------------------------------------------|


Important: The song above is NOT stored on the Chordie server. The original song is hosted at www.guitaretab.com. Chordie works as a search engine and provides on-the-fly formatting. Chordie does not index songs against artists'/composers' will. To remove this song please click here.

Text color:
Chord color:
Chord grids: 
Font size:    
Page size: 

Bb C Dm
Rate #2 of 7 versions

Jango Player

Login - add to songbook

SHARE PAGE  




You need to log in to post comments