Guitar Tabs, Chords and Lyrics
Server problems seems to be fixed. Chordie has been experiencing problems with songs disappearing. These issues now seems to be fixed, but still verifying the fix. If you find anything strange, please email admin@chordie.com.


Sweet Home Chicago   Eric Clapton

 
 e---------------------------------------------------|
 b--------------------------8----8--8----------------|
 g--7/9~--7/9-7---------------9~---9--9-7------------|
 d--------------7\5-----------------------7\5--------|
 a------------------7~------------------------7------|
 E---------------------------------------------------|

 


 


 For the verse, just listen to the song and follow this pattern


 


 Come on, baby dont you want to go (Riff A5) [Verse]


 

 
 e----------------------------------------------------------------|
 b----------------------------------------------------------------|
 g----------------------------------------------------------------|
 d-22-44--22-44--22-44-keep this same rhythm until after "go"-----|
 a-00-00--00-00--00-00--------------------------------------------|
 e----------------------------------------------------------------|

 


 


 (after the word go)[Riff E5) Verse]


 

 
 E-------------------------|
 b-------------------------|
 g-------------------------|
 d-------------------------|
 a-22-44--22-44--22-44-----|
 E-00-00--00-00--00-00-----|

 


 


 Come on, baby dont you want to go (Riff A5)[Verse]


 

 
 e----------------------------------------------------------------|
 b----------------------------------------------------------------|
 g----------------------------------------------------------------|
 d-22-44--22-44--22-44-keep this same rhythm until after "go"-----|
 a-00-00--00-00--00-00--------------------------------------------|
 e----------------------------------------------------------------|

 


 


 (after the word go)[Riff E5) Verse]


 

 
 E-------------------------|
 b-------------------------|
 g-------------------------|
 d-------------------------|
 a-22-44--22-44--22-44-----|
 E-00-00--00-00--00-00-----|

 


 


 Back from the land of california, to my sweet home chicago [verse]


 


 ^ ^ ^ upstroke these 3 notes


 

 
 e----------------------------------------0-0-x-0--|
 b-------------------------------------------------|
 g-22-44--22-44------------------------------------|
 d-00-00--00-00---22-44--22-44---------------------|
 a-----------------00-00--00-00--5-4-3-2-----------|
 E-------------------------------------------------|


Important: The song above is NOT stored on the Chordie server. The original song is hosted at www.guitaretab.com. Chordie works as a search engine and provides on-the-fly formatting. Chordie does not index songs against artists'/composers' will. To remove this song please click here.

This song is displayed as text-only. Transposing and tuning is only available for chordpro-songs.
Rate #0 of 3 versions

Login - add to songbook

SHARE PAGE  




You need to log in to post comments