Guitar Tabs, Chords and Lyrics
Server problems seems to be fixed. Chordie has been experiencing problems with songs disappearing. These issues now seems to be fixed, but still verifying the fix. If you find anything strange, please email admin@chordie.com.


Revolution  Eric Clapton

tabbed by wouter
Eric clapton - Revolution
This is the first single of the new album ''Back home'' from Eric Clapton.
chords:
[A] [Em] [E7] [F#] [C] [C7] [Bm] [B]  
 
 |--0--|--0--|--0--|--2--|--0--|--0--|--2--|--2--|
 |--2--|--0--|--3--|--2--|--1--|--1--|--3--|--4--|
 |--2--|--0--|--1--|--3--|--0--|--3--|--4--|--4--|
 |--2--|--2--|--0--|--4--|--2--|--2--|--4--|--4--|
 |--0--|--2--|--2--|--4--|--3--|--3--|--2--|--2--|
 |-----|--0--|--0--|--2--|-----|-----|-----|-----|

Intro:
F#,A,Em,A,Em,A,E7
 
 |-----6-----------|-----------------|-----------------|
 |-6-4---4-6-------|-6-4-7-6---------|-7-5-4-5-4-------|
 |-----------------|-----------------|-----------------|
 |-----------------|-----------------|-----------------|
 |-----------------|-----------------|-----------------|
 |-----------------|-----------------|-----------------|

F# F# A, E7
I told you once, I told you twice
F# F# A, E7
You never listen to my advice
G[B#]ood kind treatment, I[F#]'m threw with you
W[A]on't get [Em]to heaven, [A]I don't care w[E7]hat you do
F# F# A, E7
I seen you changin from day to day
F# F# A, E7
Nothin never gets in your way
D[F#]on't feel nothin for [F#]no one else
 
 |-0--2--4--4--2--0-|
 |-1--3--5--5--3--1-|
 |-2--4--6--6--4--2-|
 |-2--4--6--6--4--2-|
 |-0--2--4--4--2--0-|
 |----2--4--4--2----|

Take what you want, jus help yo self
([C]Say you wanna, s[C7]ay you wanna)
N[Bm]ow you want a [B]Revolution
(W[C]ant a revo[C7]lution)
[Bm]A revolution [B]now
(S[C]ay you wanna, [C7]say you wanna)
S[Bm]ay you wanna a [B]revolution
([C]Wanna r[C7]evolution)
[Bm]A revolution [B]now
B#, Em, A, E7
F# F# A, E7
(Told you once) I told you twice
F# F# A, E7
(Ya never listen) To my advice
([F#]Now your out there) Y[F#]our on your own
A[A]in't got [Em]no friends,[A] ain't got no [E7]home
(Getting mad)
F# F# A, E7
I'm gettin mad at you (Mad at you)
F# F# A, E7
Just don't like the way you do
D[F#]on't know where you t[F#]hink you been
 
 |-0--2--4--4--2--0-|
 |-1--3--5--5--3--1-|
 |-2--4--6--6--4--2-|
 |-2--4--6--6--4--2-|
 |-0--2--4--4--2--0-|
 |----2--4--4--2----|

But your goin to wind up back there again
([C]Say you wanna, s[C7]ay you wanna)
N[Bm]ow you want a [B]Revolution
(W[C]ant a revo[C7]lution)
[Bm]A revolution [B]now
(S[C]ay you wanna, [C7]say you wanna)
S[Bm]ay you wanna a [B]revolution
([C]Wanna r[C7]evolution)
[Bm]A revolution [B]now
(Revolution, a Revolution now)
F# F# A, E7
(Time has come) and it won't be long
F# F# A, E7
For you to see where you come from
([F#]You can't go back) Ca[F#]n't go back, can't stay the same
 
 |-0--2--4--4--2--0-|
 |-1--3--5--5--3--1-|
 |-2--4--6--6--4--2-|
 |-2--4--6--6--4--2-|
 |-0--2--4--4--2--0-|
 |----2--4--4--2----|

No one but yourself to blame
([C]Say you wanna, s[C7]ay you wanna)
N[Bm]ow you want a [B]Revolution
(W[C]ant a revo[C7]lution)
[Bm]A revolution [B]now
(S[C]ay you wanna, [C7]say you wanna)
S[Bm]ay you wanna a [B]revolution
([C]Wanna r[C7]evolution)
[Bm]A revolution [B]now
If there's something wrong, just mail me ( wouter.klijnsoon@gmail.com )
Enjoy!

Important: The song above is NOT stored on the Chordie server. The original song is hosted at www.guitaretab.com. Chordie works as a search engine and provides on-the-fly formatting. Chordie does not index songs against artists'/composers' will. To remove this song please click here.

Text color:
Chord color:
Chord grids: 
Font size:    
Page size: 

A B Bm C C7 E7 Em F#
Rate #2 of 3 versions

Jango Player

Login - add to songbook

SHARE PAGE  




You need to log in to post comments