Guitar Tabs, Chords and Lyrics
Major upgrade!! After one year development the new version of Chordie is now online! Please give feedback.


Zap  Eric Johnson

As recorded by Eric Johnson
(From the 1997 Album G3-LIVE IN CONCERT)
Transcribed by bluesdbest@yahoo.com
Words and Music by Eric Johnson
Gtr I (E A D G B E) - 'Distortion'
Gtr II (E A D G B E) - 'Light Distortion'
Intro - Free Time
Q=130
[Ab5]  
[4/4] Gtr I
 
 |-3-| |----6----|

W a S S S S S S S S S S S S S S S S S S S S S S E S S S E S S S S S S
 
 |-4-:-----------------------6s8-----------:---------------1-------------------|
 |-4-:---------------4---6h9-----11p9------:-----------------4-1---------------|
 |-1-:---------1-3s5---5--------------10p8-:---------------------3-------------|
 |-1-:-1s3-1-3-----------------------------:-9-9-8-6---------------3-1---------|
 |---:-------------------------------------:---------8-6---------------3-1-----|
 |---:-------------------------------------:-------------------------------4-1-|

Half Time Feel
Up Tempo Shuffle Q=204(8=s8)
[Bb5]Gtr I[Bb7]I[F7]
~~~
H E Q. Q E E E E E E E E E E E E E E E E E E E E E E
 
 |---------------||----------------|-----------------|------------------|
 |---------------||--------4-4-----|-4-4p3---6-6-----|-4-4p3---6-6---6--|
 |---------------||-3------3-3-----|-3-3-----3-3-----|-3-3-----3-3------|
 |-[3]-----------||-3----6-------6-|-------6-------6-|-------6-------3--|
 |---------------||-1--------------|-----------------|------------------|
 |----------4----||----------------|-----------------|------------------|

[Bb7] |-3-| |-3-|[F7]
E E E E E E E E E E E E E E Q E E E E E E E Q E E E E E E E E E
 
 |-----------------|----------------|-----4p3---3------|-----4p3---3---------|
 |-----------6-----|-4-4p3---6-6----|-------------6----|-------------6---6---|
 |-------5-----5---|-3-3-----3-3----|---3-----3--------|---------------------|
 |---7-------3---6-|-------6--------|------------------|-----------------3---|
 |-------3---------|----------------|-5----------------|---5-----5-----------|
 |---5-------------|----------------|------------------|-6-------------------|

+Q E E E E E E [Bb7]E E E E E E E E E E E E Q E E
 
 |------------------|--------------------|-------11-12s13-------|
 |-(6)--------------|---------------9-10s|=11----13-14s15-------|
 |--------4s5s4-5-6-|-7---8-9s10---------|----10-------------12-|
 |-(3)--------------|------------10---11s|=12-------------------|
 |------------------|--------------------|----------------------|
 |--------3s4s3-4-5s|=6-8---9s10---------|----------------------|

E S S E E E E E [(F7)] E
 
 |-------------13------------|
 |-15-16p15p13---------------|
 |------------------13s12-10-|
 |---------------------------|
 |---------------------------|
 |---------------------------|

|--3--|
E E E E S S E E E E E E E E +E E E E
 
 |------------------------------|---------------------------|
 |-------13---12p11p10----------|---------------------------|
 |-13p12---------------10-------|---------------------12-10-|
 |------------------------10----|-------12-10-(10)-10-------|
 |---------------------------14s|=13-11---------------------|
 |------------------------------|---------------------------|

Gtr I[F7]
~~~~~~~~~~~~~~~
|-3-|
E E E E E E E E H Q. E +E +E E a E +E E E E E
 
 |-----------------------|-13b16----13b16---13-|-(13)-(13)\--------------------||
 |-------13-11---13-11---|---------------------|-------------------------------||
 |-10-10-----------------|---------------------|-------------------------------||
 |-----------------------|---------------------|--------------1h3-(3)-1--------||
 |-----------------------|---------------------|------------------------3p1----||
 |-----------------------|---------------------|----------------------------4--||

Verse
[Bb7] |-3-|
[E] [E] [E] [E] [+E] [E] [E] [E] [+E] [E] [E] [a] [E] [+E] [E] [E] [E] [E]  
 
 |-------------------|-------------------------|
 |-------------------|-------------------------|
 |-------------------|-------------------------|
 |-------------------|---------1h3-(3)-1-------|
 |-1-1---1-(1)-1---1-|-(1)-1-------------3p1---|
 |-----4---------4---|-------4---------------4-|

[Bb7] [F7] |-3-|
E E E E +Q S S E +Q E a E +E E E E E
 
 |--------------------|-------------------------|
 |--------------------|-------------------------|
 |--------------------|-------------------------|
 |--------------------|--------1h3-(3)-1--------|
 |-1-1---1-(1)--------|------------------3p1----|
 |-----4--------4p3-1-|-(1)------------------4--|

[Bb7] [F7] ~~~~~~~~~~~
|-3-|
E E E E +Q E E +Q E a E +E E E E E
 
 |--------------------|--------------------------|
 |--------------------|--------------------------|
 |--------------------|--------------------------|
 |----------------[3]-|-([3])----1h3-(3)-1-------|
 |-1-1---1-(1)--------|--------------------3p1---|
 |-----4--------4-----|------------------------4-|

|-3-|
E E E E +Q S S E +Q E a E +E E E E E
 
 |--------------------|-------------------------|
 |--------------------|-------------------------|
 |--------------------|-------------------------|
 |--------------------|--------1h3-(3)-1--------|
 |-1-1---1-(1)--------|------------------3p1----|
 |-----4--------4p3-1-|-(1)------------------4--|

[Bb7] [F7]~~~~~~~~
E E E E +Q E E +Q E E E E E E
 
 |------------------|--------------------10s||
 |------------------|-----------------10----||
 |------------------|-----------10-12-------||
 |----------------3-|-(3)----12-------------||
 |-1-1---1-(1)------|-----------------------||
 |-----4--------4---|-----------------------||

Half Time Feel
[Am7] ~~
E Q. E E Q H E E E E
 
 |-12---------------|-------------------|
 |----13---13-15----|-------------------|
 |------------------|-12---------10-----|
 |------------------|---------10----10--|
 |------------------|-------------------|
 |------------------|-------------------|

[Bb9] ~~~~~~~~~
E E +E E E E E E +Q E E E E E E
 
 |-------------------------------|----------------------10s|
 |-------------------------------|-------------------10----|
 |-12-12pb13r(12)p10-------10-10-|-(10)--------10-12-------|
 |-------------------12-10-------|---------/12-------------|
 |-------------------------------|-------------------------|
 |-------------------------------|-------------------------|

[Dm9] ~~
E Q. E E Q H E E E E
 
 |-12----------------|------------------|
 |----13----13-15----|------------------|
 |-------------------|-12---------10-13-|
 |-------------------|---------10-------|
 |-------------------|------------------|
 |-------------------|------------------|

Verse
[Bb9] ~~~~~~~~~[F7] [Bb7]
|-3-|
+E E E E E E E E +Q E a E +E E E E E E E E E +E E E E
 
 |---------------------------|-------------------------||-----------------1--|
 |------11-13-12p11----------|-------------------------||--------------------|
 |-(13)-------------13p10-10-|-(10)--------------------||-----------------3--|
 |---------------------------|---------1h3-(3)-1-------||--------------------|
 |---------------------------|-------------------3p1---||-1-1---1-(1)-1---1--|
 |---------------------------|-----------------------4-||-----4---------4----|

[F7] [Bb7] [F7] ~~~~~~~~~~~
|-3-| |-3-|
+Q E a E +E E E E E E E E E +Q E E +Q E a E +E E E E E
 
 |-(1)-------------------|--------------------|--------------------------|
 |-----------------------|--------------------|--------------------------|
 |-(3)-------------------|--------------------|--------------------------|
 |-------1h3-(3)-1-------|----------------[3]-|-([3])----1h3-(3)-1-------|
 |-(1)-------------3p1---|-1-1---1-(1)--------|--------------------3p1---|
 |-----4---------------4-|-----4--------4-----|------------------------4-|

[Bb7] [F7] [Bb7] [F7]~
|-3-|
E E E E +Q E E +Q E a E +E E E E E E E E E +Q E E
 
 |-------1-(1)----1-|-(1)--------------------|-------------------|
 |------------------|------------------------|-------------------|
 |-------3-(3)----3-|-(3)--------------------|-------------------|
 |------------------|--------1h3-(3)-1-------|----------------3--|
 |-1-1---1-(1)----1-|-(1)--------------3p1---|-1-1---1-(1)-------|
 |-----4--------4---|------4---------------4-|-----4--------4----|

~~~~~~~~~~~ [Bb7] ~~~~~~~ ~~~~~~~~~[F7]
+H +Q Q E E E E +Q E E +E E E E +Q +E E
 
 |-----------------|-------13----------13----|------13------------------------|
 |-----------------|-16p15----16-(16)-----16-|-(16)------15b16==(15)r=(15)-16-|
 |-----------------|-------------------------|--------------------------------|
 |-(3)----(3)/-----|-------------------------|--------------------------------|
 |-----------------|-------------------------|--------------------------------|
 |-----------------|-------------------------|--------------------------------|

[Bb7] Q E E +E E E [F7] E
 
 |-----13---------13---15b17==|
 |-16-----16-(16)-------------|
 |----------------------------|
 |----------------------------|
 |----------------------------|
 |----------------------------|

~~ [Bb7] ~~~~~~~ ~~
+E +E +E E Q Q E E E E +E E E E
 
 |-(15)-(15)pb17r(15)p13-13-----|-------13---------13------|
 |------------------------------|-16p15----16-(16)------16-|
 |------------------------------|--------------------------|
 |------------------------------|--------------------------|
 |------------------------------|--------------------------|
 |------------------------------|--------------------------|

~~~~ [F7] [Bb7] ~~~~~~~ [F7] ~~
|--3--|
+E E E E +Q +E E E E E E +E E E E E
 
 |------13-----------------------|-------13---------13------13-|
 |-(16)------15b16==(15)r=(15)---|-16p15----16-(16)------16----|
 |-------------------------------|-----------------------------|
 |-------------------------------|-----------------------------|
 |-------------------------------|-----------------------------|
 |-------------------------------|-----------------------------|

[+E] [+E] [E] [E] [E] [E] [E] [E]  
 
 |-(13)-(13)\----------------10s=||
 |------------------------10-----||
 |------------------10-12--------||
 |--------------/12--------------||
 |-------------------------------||
 |-------------------------------||

Half Time Feel
[Am7] ~~ [Bb9] ~~
E Q. E E Q H E E E E E E +E E E E E E
 
 |-12----------------|------------------|-------------------------------|
 |----13----13-15----|------------------|-------------------------------|
 |-------------------|-12---------10----|-12-12pb13r(12)p10-------10-10-|
 |-------------------|---------10----10-|-------------------12-10-------|
 |-------------------|------------------|-------------------------------|
 |-------------------|------------------|-------------------------------|

~~~~ [Dm9] ~~
+Q E E E E E E E Q E E Q E H E E E E
 
 |----------------------10s|=12-------------------|-15---------------|
 |-------------------10----|----13---12s13-15--15-|------------18-21-|
 |-(10)--------10-12-------|----------------------|---------17-------|
 |---------/12-------------|----------------------|------------------|
 |-------------------------|----------------------|------------------|
 |-------------------------|----------------------|------------------|

Verse
[Bb9] ~~~~~~~~~~~~[F7] [Bb7]
+E E E E E E E E +Q E E Q Q Q E E +Q E E
 
 |------18-20-19p18------------|-----------------------||------1-(1)----1-|
 |-(21)-------------21p18-[18]-|-([18])----------------||-----------------|
 |-----------------------------|-----------------------||------3-(3)----3-|
 |-----------------------------|-----------------------||-----------------|
 |-----------------------------|-------------------8\--||-1----1-(1)----1-|
 |-----------------------------|-----------13s10\------||----4--------4---|

[F7] [Bb7] [F7]~~~~~~~~
|-3-| |-3-|
+Q E a E +E E E E E E E E E +Q E E +Q E a E +E E E E E
 
 |-(1)--------------------|------------------|------------------------|
 |------------------------|------------------|------------------------|
 |-(3)--------------------|------------------|------------------------|
 |--------1h3-(3)-1-------|----------------3-|-(3)----1h3-(3)-1-------|
 |-(1)--------------3p1---|-1-1---1-(1)------|------------------3p1---|
 |------4---------------4-|-----4--------4---|----------------------4-|

[Bb7] [F7] [Bb7] [F7]~
E E E E +E E E E +E E a E +E E E E E E E E E +Q E E
 
 |-------------------|-----------------------|------------------|
 |-------------------|-----------------------|------------------|
 |-------------------|-----------------------|------------------|
 |-------------------|-------1h3-(3)-1-------|----------------3-|
 |-1-1---1-(1)-1---1-|-(1)-------------3p1---|-1-1---1-(1)------|
 |-----4---------4---|-----4---------------4-|-----4--------4---|

Interlude
~~~[F] [Eb5] [F5]
+H Q E E a Q E E Q Q +E E E E E E E E
 
 |-----------------||------------6----8--|-(8)---8-7p6-------|
 |-----------------||--9h=10----------6--|-(6)---------9p6---|
 |-----------------||-10-(10)----8----5--|-(5)-5-------------|
 |-(3)----------10-||------------8-------|-------------------|
 |--------3/-------||--------------------|-------------------|
 |-----------------||--------------------|-------------------|

[Fm] [Ebsus2] [F5] [Fm] [Ebsus2F5] ~~
E E E E Q a Q E a E E E Q +E E E E E E E E Q
 
 |--------6----11s13--|---11----------------------|--------6-----11-|
 |--9-----6-----------|------11p10----------------|--9-----6--------|
 |-10-----8-----------|------------10-------------|-10-----8---8----|
 |-10-----8-----------|---------------10--(10)\---|-10-----8--------|
 |--------------------|---------------------------|-----------------|
 |--------------------|---------------------------|-----------------|

~~~~[Fm] [EbsusC5]
+Q E E +E E E E E E E E Q Q +W +W
 
 |-(11)--8-------------------|--------6-------|------------|--------||
 |---------11b13r(11)-9------|--9-----6----8--|-(8)--------|-(8)----||
 |----------------------10---|-10-----8----5--|-(5)--------|-(5)----||
 |---------------------------|-10-----8----5--|-(5)--------|-(5)----||
 |---------------------------|----------------|------------|--------||
 |---------------------------|-------------8--|-(8)--------|-(8)----||

Bass Solo
[Bb]Gtr II[Eb/Bb] [Bb] [Eb/BbBb] [F5]
Q. E E Q E Q. E Q. E E Q E Q Q
 
 |----------------|---------------|--------------|
 |------3h4-------|-4------3------|-4------3-----|
 |----------3-----|---------------|---3----------|
 |-------------5--|------3--------|------3-------|
 |----------------|---------------|--------------|
 |-6--------------|-------------6-|------------1-|

E Q E +E E Q [Bb]Q E E [Eb/Bb]E Q E E E Q [Bb]Q Q [Ab5]Q Q [Eb]Q Q
 
 |-1----1-(1)------|---------------|--------------|-------------|
 |---1--------1----|------3h4------|-4------3-----|-9-----8-----|
 |-----------------|----3-----3----|---3----3-----|-8-----------|
 |-----------------|-------------5-|-----5--3-----|-6-----8-----|
 |-----------------|---------------|--------------|-------6-----|
 |-----------------|-6-------------|--------------|-------------|

[F5] [Ab5] [Bb5] [F7] |-3-|
H E E q W Wx54 H a E E E E E
 
 |--------------|----------|--------------|-------------------||
 |--------------|----------|--------------|-------------------||
 |-10-----------|----------|--------------|-------------------||
 |-10--------6--|-8--------|--------------|-------1h3-1-------||
 |--8-----------|----------|--------------|-------------3p1---||
 |---------4----|-6--------|--------------|-----------------4-||

Verse
[Bb7] [F7] |-3-|[Bb7] [F7]
E E E E +E E E E +Q E a E +E E E E E E E E E +Q E E
 
 |-----------------1-|-(1)--------------------|-------------------|
 |-------------------|------------------------|-------------------|
 |-----------------3-|-(3)--------------------|-------------------|
 |-------------------|--------1h3-(3)-1-------|-------------------|
 |-1-1---1-(1)-1---1-|-(1)--------------3p1---|-1-1---1-(1)-------|
 |-----4---------4---|------4---------------4-|-----4--------3-1--|

|-3-| [Bb7] [F7] |-3-|
Q E a E +E E E E E E E E E +E E E E E E E a E +E E E E E
 
 |----------------------|-------------------|-----------------------|
 |----------------------|-------------------|-----------------------|
 |----------------------|-------------------|-----------------------|
 |------1h3-(3)-1-------|-------------------|-------1h3-(3)-1-------|
 |----------------3p1---|-1-1---1-(1)-1---1-|-1-1-------------3p1---|
 |-1------------------4-|-----4---------4---|-----4---------------4-|

[Bb7] [F7] ~~~~~~~~~~~~~~~~~~~~~~~~~~~ [Bb7] ~~~~~~~ ~~
E E E E +Q E E +H +E +E E E E E E E +E E E E
 
 |--------------------|----------------------------|-------13---------13------|
 |--------------------|----------------------------|-16p15----16-(16)------16-|
 |--------------------|----------------------------|--------------------------|
 |----------------[3]-|-([3])----([3])-([3])/------|--------------------------|
 |-1-1---1-(1)--------|-------------------------13-|--------------------------|
 |-----4--------4-----|----------------------------|--------------------------|

~~~~[F7]
+E E E E +Q +E E
 
 |------13------------------------|
 |-(16)------15b16==(15)r=(15)-16-|
 |--------------------------------|
 |--------------------------------|
 |--------------------------------|
 |--------------------------------|

[Bb7] [F7] ~~
Q E E +E E E E +E +E +E E Q Q
 
 |-----13---------13---15b17==|=(15)-(15)pb17r(15)p13-13----|
 |-16-----16-(16)-------------|-----------------------------|
 |----------------------------|-----------------------------|
 |----------------------------|-----------------------------|
 |----------------------------|-----------------------------|
 |----------------------------|-----------------------------|

[Bb7] ~~~~~~~ ~~~
[E] [E] [E] [E] [+E] [E] [E] [E]  
 
 |-------13---------13------|
 |-16p15----16-(16)------16-|
 |--------------------------|
 |--------------------------|
 |--------------------------|
 |--------------------------|

~~~~~~ [F7] [Bb7] [F7] ~~~~~
+E E E E +Q +E E Q E E +E E E E
 
 |------13------------------------|-----13---------13---------|
 |-(16)------15b16==(15)r=(15)-16-|-16-----16-(16)------16b18-|
 |--------------------------------|---------------------------|
 |--------------------------------|---------------------------|
 |--------------------------------|---------------------------|
 |--------------------------------|---------------------------|

Interlude
~~~~[F] [EbsusF5]
+H Q E E a Q E E Q Q +E E E E E E E E
 
 |-----------------||------------6----8--|-(8)---8-7p6-------|
 |-(16)------------||--9h=10----------6--|-(6)---------9p6---|
 |-----------------||-10-(10)----8----5--|-(5)-5-------------|
 |--------------10-||------------8-------|-------------------|
 |-----------------||--------------------|-------------------|
 |-----------------||--------------------|-------------------|

[Fm] [Ebsus2] [F5] [Fm] [Ebsus2F5] ~~
E E E E Q a Q E a E E E Q +E E E E E E E E Q
 
 |--------6----11s13--|---11----------------------|--------6-----11-|
 |--9-----6-----------|------11p10----------------|--9-----6--------|
 |-10-----8-----------|------------10-------------|-10-----8---8----|
 |-10-----8-----------|---------------10--(10)\---|-10-----8--------|
 |--------------------|---------------------------|-----------------|
 |--------------------|---------------------------|-----------------|

~~~~[Fm] [Eb/BbC5]
+Q E E +E E E E E E E E Q Q +W +Q Q E E E E
 
 |-(11)--8-------------------|--------6-------|------------|-----------------||
 |---------11b13r(11)-9------|--9-----6----8--|-(8)--------|-(8)-------------||
 |----------------------10---|-10-----8----5--|-(5)--------|-(5)-------------||
 |---------------------------|-10-----8----5--|-(5)--------|-(5)-------------||
 |---------------------------|----------------|------------|---------------6-||
 |---------------------------|-------------8--|-(8)--------|-(8)-------6-0---||

Guitar Solo
[Bb7]~ [F7] [Bb7] [F7] ~~~
 
 |-3--| |-3--| |-3--| |-3--|

W Q Q Q Q Q Q Q Q Q Q Q Q H. E E
 
 |----------|----------------|--------------8-|---------------|
 |----------|----------------|---------9-11---|---------------|
 |----------|-----------8-10-|----8-10--------|-10------------|
 |----------|--------10------|-10-------------|------------10-|
 |-8--------|-6s8-11---------|----------------|---------------|
 |----------|----------------|----------------|---------------|

[Bb7] H +E S +S E +S S
 
 |---------------------------------------------------|

|-11b13=====(11)-11pb13r(11)b13==11pb13r(11)-11b13==|
 
 |---------------------------------------------------|
 |---------------------------------------------------|
 |---------------------------------------------------|
 |---------------------------------------------------|

+E S S +E [F7] E +E E E E
 
 |--------------------------------------------------|
 |-(11)-11pb13r11b13==(11)-11pb13r(11)-9-11-11pb13r=|
 |--------------------------------------------------|
 |--------------------------------------------------|
 |--------------------------------------------------|
 |--------------------------------------------------|

[Bb7] [F7] ~~~~~
+E E +E E E E E E Q H.
 
 |--------------------------------------|----------------|
 |-(11)-11pb13r=(11)-11pb13r=11-9-------|-----16b18------|
 |--------------------------------10s13-|----------------|
 |--------------------------------------|----------------|
 |--------------------------------------|----------------|
 |--------------------------------------|-13-------------|

[Bb7]  
 
 |--3--| |-3--|

S S S S E E E E E E S S S S
 
 |-13----------------------9---------------|
 |----16p13----16p13---------11p9----11p9--|
 |----------15-------15-13--------10-------|
 |-----------------------------------------|
 |-----------------------------------------|
 |-----------------------------------------|

[Bb7]  
 
 |-3--| |--3--| |--3--| |--3--|

[E] [E] [E] [E] [E] [E] [E] [E] [E] [E] [E] [E]  
 
 |-----------------------------------|
 |---------9s11----------------------|
 |-10p8h10------10-13-13p10-------10-|
 |--------------------------13p10----|
 |-----------------------------------|
 |-----------------------------------|

[Bb7] [F7]  
 
 |-3--| |-3-| |3| |--3--|

E E E S S S S E E E E Q Q. +E Q Q Q
 
 |----------------------------|-------------------|
 |----------------------------|-------------------|
 |-8--------------------------|-------------------|
 |---10p8----10p8-8-5---------|-------------------|
 |--------10----------8-6-----|-------------------|
 |------------------------8p6p|=5----(5)\----4s=5-|

[Bb7] [F7] |--3---|[Bb7] [F7]
Q E S +S +Q E E E E E E E E E E a E +H. E S +S
 
 |------------------------|---------6-6-8---8s11-|-(11)----------------------|
 |----------------------6-|-9-9p8-9-------9------|-----------13-11b12==(11)r=|
 |------7b8==(7)r(7)--8---|----------------------|---------------------------|
 |------------------------|----------------------|---------------------------|
 |----8-------------------|----------------------|---------------------------|
 |-6----------------------|----------------------|---------------------------|

Bb7 N.C.
~~~~~~~ ~~~~~~~
|--3--|
+E E E E +Q E E E E E E E +Q E E
 
 |--------------------------|-13---------13-(13)--11h13-|
 |-(11)---------------------|---------------------------|
 |------13-10-10-(10)----10-|----10---10----------------|
 |--------------------------|---------------------------|
 |--------------------------|---------------------------|
 |--------------------------|---------------------------|

~~
Q E E S S S S S S S S
 
 |-13--11-13----11-13-------------13-|
 |-----------13-------13p11----------|
 |--------------------------13-10----|
 |-----------------------------------|
 |-----------------------------------|
 |-----------------------------------|

|--3--|
E E E E S S +S S S S E S S
 
 |-11---------------------------------------|
 |----13p11-13-13p11-(11)-13p11----13-13p11-|
 |------------------------------13----------|
 |------------------------------------------|
 |------------------------------------------|
 |------------------------------------------|
 |--3--| |--3--| |--3--|

+S S S S E E E E E E E E E
 
 |-------------------------------------------|
 |-(11)-13p11-------11-----------------------|
 |------------13-10----13s15-15-13-----------|
 |---------------------------------15p13-----|
 |---------------------------------------15p=|
 |-------------------------------------------|

[Bb7] ~~[Ab7]
H a E E Q E E Q E E Q
 
 |--------------------|---------------------|
 |--------------------|---------------------|
 |-------------15s13--|----13s12-----12s10--|
 |--------------------|---------------------|
 |-13----15s17--------|-15--------13--------|
 |--------------------|---------------------|

[G7] [Gb7] [F7] ~~
E E Q E E E E H +E E E E
 
 |--------------------|--------------------|
 |--------------------|--------------------|
 |----10s8-----8s7----|--------------------|
 |--------------------|-10----(10)-8-------|
 |-11-------10-----10-|--------------8-10s=|
 |--------------------|--------------------|

[Bb7] E E E E E E E E E E E [F7]E E E E S S [Bb7]E E E E E E E [F7]E
 
 |-------------------------|-----------------------|-----------------|
 |----------------13p11----|-9p8---------8---------|-6---------------|
 |----------10-13-------13-|-----10-8-10------10s8-|---5-8p5---8p5---|
 |----10h12----------------|---------------10------|---------8-----8-|
 |-11----------------------|-----------------------|-----------------|
 |-------------------------|-----------------------|-----------------|

[Bb7]~[F7]
 
 |--3--| |--3--| |---3---|

E E E E E E E E H Q Q Q Q Q Q Q a Q Q
 
 |-----------------|--------------|--------------------|
 |-----------------|--------------|--------------------|
 |-----------------|--------------|------------------3-|
 |-6-------3-------|-3------------|-1--3p=1--3--3s6----|
 |---8s6-3---6-----|---------1--3-|--------------------|
 |-------------6p4-|--------------|--------------------|

[Bb7] [F7]  
 
 |--3---| |---3----| |--3--|

a Q Q a Q Q a Q Q a Q Q Q E E E E
 
 |-----------------------|-------------------13----|
 |-----------------------|-------------13-16----13-|
 |-----5------5-------10-|-------13-15-------------|
 |-6s8---8s10---10s13----|-13s15-------------------|
 |-----------------------|-------------------------|
 |-----------------------|-------------------------|

~~ [Cm] ~~~~
Q E E a E E E E
 
 |-13-----13-------------[13]--|
 |-----16----------------------|
 |-----------16s15-13----------|
 |--------------------15-------|
 |-----------------------------|
 |-----------------------------|

~~~~~~ [Bb7] ~~~
+Q E E a E E E E
 
 |-([13])--13-13-------------13-|
 |------------------------------|
 |---------------16s15-13-------|
 |------------------------15----|
 |------------------------------|
 |------------------------------|

~~~~~~[Eb] [F]
+Q E E a E E E E +E +E +E E E E Q
 
 |-(13)-----13--------------------|---------------------------|
 |-------16-----------------------|---------------------------|
 |-------------16s15-13----15b17==|=(15)-(15)r(15)-13---------|
 |----------------------15--------|-------------------15------|
 |--------------------------------|---------------------------|
 |--------------------------------|----------------------13---|

[Bb7] [Cm] ~~~~~~~~~[Bb/D]
 
 |--3--| |--3--|

a Q E E a E E E E +Q E S S E E E E E E
 
 |-11s13-----13-------------13-|-(13)-----------16-20-18-16-18p16-|
 |--------16-------------------|----------16-18-------------------|
 |--------------16-15-13-------|-------17-------------------------|
 |-----------------------15----|----------------------------------|
 |-----------------------------|----------------------------------|
 |-----------------------------|----------------------------------|

[Eb] [F]  
 
 |--3--| |--3--| |3-|

E E E E E E E Q S S S S
 
 |-------------------------------------|
 |-18p16----16h18-------16-18p16-------|
 |-------17-------17p15----------17p15-|
 |-------------------------------------|
 |-------------------------------------|
 |-------------------------------------|

[B7] ~~~~~
S S S S Q H
 
 |--------------------------|
 |-16p13-----------16b18----|
 |-------15p13--------------|
 |-------------15-----------|
 |--------------------------|
 |--------------------------|

[Bb7] [Eb7] [Ab7] ~~~~~~~~~[Db7] [G7]
a Q E E a E E E E +Q E E a E E Q
 
 |-11s13-----13-------------13-|-(13)-----13-------------|
 |--------16-------------------|-------16----------------|
 |--------------16s15-13-------|-------------16s15-13----|
 |-----------------------15----|----------------------15-|
 |-----------------------------|-------------------------|
 |-----------------------------|-------------------------|

[C7] [F7] [B7]  
 
 |--3--| |--3--| |--3--| |--3--| |--3--| |--3--| |--3--|

a E S S E E E E E E E E E E E E E E E E E E E E E
 
 |-------------16-20-18-16-18p16----------|---------------------------15-16p15p=|
 |-------16-18-------------------18p16-18-|-16---------16p13----13-16-----------|
 |-15s17----------------------------------|----17s15---------15-----------------|
 |----------------------------------------|-------------------------------------|
 |----------------------------------------|-------------------------------------|
 |----------------------------------------|-------------------------------------|

[Bb7] S S S S S S S S S S S S S [Ab7] E.
 
 |-13----15-13-16-13-16p15s13-11-13-11--------|
 |----16-------------------------------13p11--|
 |--------------------------------------------|
 |--------------------------------------------|
 |--------------------------------------------|
 |--------------------------------------------|

S S S S S S S S S S S S S S S S
 
 |-8---------------------------------------|
 |---11-9----11p9-------------------8h9p8s=|
 |--------10------10p8-10p8----8-10--------|
 |--------------------------10-------------|
 |-----------------------------------------|
 |-----------------------------------------|

[G7] [Gb7] [F7] ~~~~~~~~~
 
 |-3-| |-3-| |-3-|

S S S S S S S S E E E E E E E E E +Q +E a E E E
 
 |-----------------------------|-------------------------|
 |-6-8-9-9-8-9-8p6-------------|-------------------------|
 |-----------------8-6---------|-------------------------|
 |---------------------8-6-----|-------------------------|
 |-------------------------8-6-|---------------------6-8-|
 |-----------------------------|-8p6s5-(5)--(5)\-6s8-----|

[Bb7]E Q. +Q E E +Q E [F7]E +Q Q [Bb7]Q E a E +Q Q[F7]
 
 |-----------------|------------------|------------------|
 |---9----(9)----9-|-(9)--7s8-(8)-----|-9----7s8-(8)-----|
 |---8----(8)----8-|-(8)--------------|-8----------------|
 |---6----(6)----6-|-(6)--7s8-(8)-----|-6----7s8-(8)-----|
 |-----------------|------5s6-(6)-----|------5s6-(6)-----|
 |-6---------------|------------------|------------------|

[Bb7]  
 
 |---3---| |----3----|

E a Q E +Q. +E Q Q Q Q Q Q
 
 |------------------------|--------------------------|
 |------------------------|--------------------------|
 |------------------------|--------------------------|
 |--------10--(10)--------|-13S=15--13S=15--/13---15-|
 |---6s8--(8)--(8)---(8)/-|--------------------------|
 |------------------------|-11------11-------11------|

[F7]  
 
 |---3---|

Q Q Q Q E E
 
 |-----------------------------|
 |-----------------------------|
 |---------------------15b17===|
 |-13S=15--13S=15--------------|
 |-----------------------------|
 |-11------11------13----------|

[Bb7] +Q. S +S +E S +S +E [F7] S +S
 
 |---------------------------------------------------------------------|
 |---------------------------------------------------------------------|
 |-(15)---15pb17r=(15)b17==(15)-15pb17r=(15)b17==(15)-15pb17r=(15)b17==|
 |---------------------------------------------------------------------|
 |---------------------------------------------------------------------|
 |---------------------------------------------------------------------|

~~
[+E] [E] [+E] [E] [B]  
 
 |------------------------|
 |------------------------|
 |-(15)-15pb17r(15)p13----|
 |---------------------15-|
 |------------------------|
 |------------------------|

[Bb7] E Q E E E E E +E Q [F7] E Q +E E
 
 |----------------------------|----------------------------|
 |----------------------------|----------------------------|
 |-----------------13b13.5----|-------------15b17r=(15)-13-|
 |-13-15--15---------------15-|-(15)-15--15----------------|
 |----------------------------|----------------------------|
 |-13-13--13-13-13---------13-|-(13)-13--13----------------|

[Bb7] [F7] 
[E] [E] [+E] [E] [E] [E] [+E] [E]  
 
 |----------------------------------------------------|
 |----------------------------------------------------|
 |-15b17===15pb17r=(15)--13--15b17===15pb17r=(15)--13-|
 |----------------------------------------------------|
 |----------------------------------------------------|
 |----------------------------------------------------|

[E] [E] [+E] [E] [E] [E] [+E] [E]  
 
 |----------------------------------------------------|
 |----------------------------------------------------|
 |-15b17===15pb17r=(15)--13--15b17===15pb17r=(15)--13-|
 |----------------------------------------------------|
 |----------------------------------------------------|
 |----------------------------------------------------|

[Bb7] E E Q +Q. +E
 
 |--------------------------------|
 |--------16b18====(16)b18---(16)-|
 |--------------------------------|
 |-15-----------------------------|
 |--------------------------------|
 |-----13-------------------------|

E Q [F7] S +S +E S +S +E S +S
 
 |-13-------------------------------------------------------------------|
 |----16b18===16pb18r(16)b18==(16)-16pb18r(16)b18==(16)-16pb18r(16)b18==|
 |----------------------------------------------------------------------|
 |----------------------------------------------------------------------|
 |----------------------------------------------------------------------|
 |----------------------------------------------------------------------|

[Bb7] +E S +S +E S +S +E S +S +E [F7] S +S
 
 |-------------------------------------------------------------------------------------|

|-(16)-16pb18r(16)b18==(16)-16pb18r(16)b18==(16)-16pb18r(16)b18==(16)-16pb18r(16)b18==|
 
 |-------------------------------------------------------------------------------------|
 |-------------------------------------------------------------------------------------|
 |-------------------------------------------------------------------------------------|
 |-------------------------------------------------------------------------------------|

[Bb7]  
 
 |-------3-------| |-------3--------|

+E E +E E E E E E Q Q Q Q Q Q
 
 |---------------------------------|-------------------------------------------|
 |-(16)-16pb18r(16)-13-------------|-16b18--16pb18===16r--16b18---16pb18===16r-|
 |---------------------15-13-------|-------------------------------------------|
 |---------------------------15----|-------------------------------------------|
 |---------------------------------|-------------------------------------------|
 |------------------------------13-|-------------------------------------------|

[F7] [Bb7] [F7]  
 
 |------3------| |--3--| |------3------| |------3------|

Q Q Q Q Q Q Q Q Q Q Q Q
 
 |----------------------------|-------------------------------------|
 |-16b18-16pb18==13r----------|-16b18-16pb18==16r-16b18-16pb18==16r-|
 |-------------------15-13----|-------------------------------------|
 |-------------------------15-|-------------------------------------|
 |----------------------------|-------------------------------------|
 |----------------------------|-------------------------------------|

[Bb7]  
 
 |--3---| |--3--| |------3------|

Q Q Q Q Q Q Q Q Q E E +E E
 
 |--------------------|-----------------------------------------|
 |-16r-16-13----------|-16b18-16pb18==16r-16b18==16pb18r(16)-17s|
 |-----------15-13----|-----------------------------------------|
 |-----------------15-|-----------------------------------------|
 |--------------------|-----------------------------------------|
 |--------------------|-----------------------------------------|

|--3--|[F7]
[E] [E] [E] [+B] [E] [E]  
 
 |---------------------------|
 |-18-18-18b21-(18)----16-18-|
 |---------------------------|
 |---------------------------|
 |---------------------------|
 |---------------------------|

[Bb7] [F7] [Bb7] ~~ ~~
E E E E E S S Q E E E E Q E E Q E E Q E E
 
 |--------------------------|----------------------|-------------------|
 |-13-16----13--------------|-------12-15p13-------|-------------------|
 |-------15----13-15p13s12--|-13-13-----------13---|-------------------|
 |--------------------------|----------------------|-15--12---15--12---|
 |--------------------------|----------------------|-------------------|
 |--------------------------|----------------------|-------------------|

~~[F7] [Bb7] [F7]
 
 |---3---|

Q E E E E E E +H E +Q +Q
 
 |--------------------------------|--------------------------------|
 |----------------------13--------|--------------------------------|
 |-----------13b13.5-15----15b17==|=(15)----15pb17r(15)b17===(15)r=|
 |-12--12-15----------------------|--------------------------------|
 |--------------------------------|--------------------------------|
 |--------------------------------|--------------------------------|
 |---3---|

Q Q Q +E E +E +E
 
 |-----------------------------------|
 |-----------------------------------|
 |-15--13--13--(13)-15b17==(15)r(15)-|
 |-----------------------------------|
 |-----------------------------------|
 |-----------------------------------|

[Bb7] ~~[F7]
 
 |-----3------| |------3-------| |---3---|

H +Q a Q Q E +E Q Q Q Q Q
 
 |------------------------|-------------------------------|
 |------------------------|-------------------------------|
 |------------------------|--------------------13--15--15-|
 |-15----(15)\---------13-|-12b13r(12)-13--15-------------|
 |--------------13s15-----|-------------------------------|
 |------------------------|-------------------------------|

[Bb7] [F7]  
 
 |----3-----| |-3-| |--3--|

Q Q E E +E Q E E E
 
 |----------------------------------|
 |-13--13--16s18-(18)-16--16-18-16p=|
 |---------15S17-(17)---------------|
 |----------------------------------|
 |----------------------------------|
 |----------------------------------|

[Bb7]  
 
 |--3--| |--3--| |--3--| |--3--| |--3--|

E E E E E E E E E E E E S S S S E E E E E E S S
 
 |-------------------------------------|-------------------------------------|
 |-13----16-18-16p13----16-18p16-13----|-16-18-16p13----16-18-16p13----16-18-|
 |----15-------------15-------------15-|-------------15-------------15-------|
 |-------------------------------------|-------------------------------------|
 |-------------------------------------|-------------------------------------|
 |-------------------------------------|-------------------------------------|

S S E S S [F7] S S E S S S S E
 
 |----------------------------------------|
 |-16p13----16-18-16p13----16-18-16p13----|
 |-------15-------------15-------------15-|
 |----------------------------------------|
 |----------------------------------------|
 |----------------------------------------|

[Bb7] |--3--|[F7]
S S S S E E E E E E S S
 
 |-------------------------------------|
 |-16-18-16p13----16-18-16p13----16-18-|
 |-------------15-------------15-------|
 |-------------------------------------|
 |-------------------------------------|
 |-------------------------------------|

[Bb7] |--3--|
S S E S S S S E S S S S E S S S S E E E E E E S S
 
 |----------------------------------------|-------------------------------------|
 |-16p13----16-18-16p13----16-18-16p13----|-16-18-16p13----16-18-16p13----16-18-|
 |-------15-------------15-------------15-|-------------15-------------15-------|
 |----------------------------------------|-------------------------------------|
 |----------------------------------------|-------------------------------------|
 |----------------------------------------|-------------------------------------|

S S E S S [F7] S S E S S S S E
 
 |----------------------------------------|
 |-16p13----16-18-16p13----16-18-16p13----|
 |-------15-------------15-------------15-|
 |----------------------------------------|
 |----------------------------------------|
 |----------------------------------------|

[Bb7] S S S S E S S S S E S S [F7] S S E S S S S E S S S S E E
 
 |-------------------------------------------|-------------------------------------|
 |-16-18-16p13----16-18-16p13----16-18-16p13-|----16-18-16p13----16-18-16p13-------|
 |-------------15-------------15-------------|-15-------------15-------------15----|
 |-------------------------------------------|-------------------------------------|
 |-------------------------------------------|-------------------------------------|
 |-------------------------------------------|----------------------------------13-|

[Bb7]  
[B] [E] [E] [+E] [+E]  
 
 |-----------------------------------|
 |-----------------------------------|
 |-15b17----15pb16-15pb17==(15)r(15)-|
 |-----------------------------------|
 |-----------------------------------|
 |-----------------------------------|

[F7] [Bb7] ~~~~[F7]
|--3--|
E +Q E E E E E Q. E +Q E E E
 
 |----------------------------|--------------------13-------|
 |----------------------------|--------16b18-(16)-----16p13-|
 |-15pb17r(15)p=13------------|--------16b18-(16)-----------|
 |----------------------------|--15-------------------------|
 |-------------------13-------|-----------------------------|
 |----------------------16-13-|-(13)------------------------|
 |--3--| |--3--|

S S S S S S S S E E E E E E
 
 |-------------------------------------------|
 |----16p13----------13----------------------|
 |-15-------15-13s12----15p12-13-10----------|
 |----------------------------------13-11----|
 |----------------------------------------13-|
 |-------------------------------------------|

[Bb7] [F7]  
 
 |-----3------| |---3---|

a Q E E +E E Q +E E a Q Q Q Q Q
 
 |--------------------------|--------------------------------|
 |-----------15-(15)----15--|-(15)---------------------------|
 |--------------------------|--------------------------------|
 |--------15---------15-----|-------------------13s=15--18---|
 |-11s13--------------------|--------11s13--15---------------|
 |--------------------------|--------------------------------|

Half Time Feel
[Bb7] [F7] ~~ [Am7] ~~
 
 |---3---|

Q Q Q E E E E H +Q E E E Q. E E E E
 
 |-------------16--18h=20p=16-|----------------10s||=12--------------------|
 |-----16--18-----------------|-18----(18)\-------||----13----13--15-------|
 |-17-------------------------|-------------------||-------------------12--|
 |----------------------------|-------------------||-----------------------|
 |----------------------------|-------------------||-----------------------|
 |----------------------------|-------------------||-----------------------|

~~~~ [Bb7] ~~~~~~~~~
+H E E E E E E +E E E E E E +Q E E E E E E
 
 |--------------------|-------------------------------|---------------------10s=|
 |--------------------|-------------------------------|------------------10-----|
 |-(12)---------10----|-12-12pb13r(12)-10-------10-10-|-(10)-------10-12--------|
 |-----------10----10-|-------------------12-10-------|---------12--------------|
 |--------------------|-------------------------------|-------------------------|
 |--------------------|-------------------------------|-------------------------|

[Dm9] ~~~~~~~~~ [Bb7] ~~
E Q. E E E E +Q. +E E E E E +E E E E E E E E
 
 |-12---------------15-|-(15)---(15)/------------|------18-20-19p18----------|
 |----13----13-15------|-------------------18-21-|-(21)-------------21p18-18-|
 |---------------------|----------------17-------|---------------------------|
 |---------------------|-------------------------|---------------------------|
 |---------------------|-------------------------|---------------------------|
 |---------------------|-------------------------|---------------------------|

Verse
~~~~[F7] [Bb7] [F7]
|-3-| |-3-|
+Q +E a E +E E E E E E E E E +E E E E E E E a E E E E E E
 
 |-----------------------------||-------------------|---------------------|
 |-(18)--(18)\-----------------||-------------------|---------------------|
 |-----------------------------||-------------------|---------------------|
 |-------------1s3-(3)-1-------||----------

Important: The song above is NOT stored on the Chordie server. The original song is hosted at www.guitaretab.com. Chordie works as a search engine and provides on-the-fly formatting. Chordie does not index songs against artists'/composers' will. To remove this song please click here.

Text color:
Chord color:
Chord grids: 
Font size:    
Page size: 

Ab5 Ab7 Am7 B B7 Bb Bb/D Bb5 Bb7 C7 Cm Db7 E Eb Eb5 Eb7 Ebsus2 F F5 F7 Fm G7 Gb7
Rate #1 of 3 versions

Jango Player

Login - add to songbook

SHARE PAGE  



You need to log in to post comments