Guitar Tabs, Chords and Lyrics
Server problems seems to be fixed. Chordie has been experiencing problems with songs disappearing. These issues now seems to be fixed, but still verifying the fix. If you find anything strange, please email admin@chordie.com.


Manhattan  Eric Johnson

|--3--|
Q E E S E. E E Q. E S S S S S S S S S
 
 E||-------|-------/11--9----------------|------------------------------------|
 B||-------|---------------9s-11------7--|--/11---------7h-9p-7-----7s-9-11---|
 G||-------|--------/8--6----------8-----|-----------8----------8---6s-8------|
 D||-------|---------------6s--8------4--|---/8-------------------------------|
 A||-------|-----------------------6-----|-----------6------------------------|
 E||-------|-----------------------------|------------------------------------|

E E E S S S E. E E Q. E Q S S E
 
 --------/11--9-----------------|------------6g7-------------|
 --7--------------9s-11---7--9--|-------------------7s-9s-7--|
 --6------/8--6-----------------|--8---------7g8-------------|
 -----------------6s--8---4--6--|-------------------6s-8s-6--|
 -------------------------------|--6------9----L-------------|
 -------------------------------|----------------------------|

E E E E S E. E E E E E E E Q E
 
 --------11--9----------------|------------2--4--6-------|
 --L------------11s-9------7--|--11--------0--L--4-------|
 ---------8--6----------8-----|------------3--L--4-------|
 --L-------------8s-6------4--|---8----------------------|
 -----------------------6-----|-----------------------4--|
 -----------------------------|--------------------------|

Q S S S S E E E S S Q E E E E E E
 
 --4----------------------------|---------------------------|
 --2------------7g9--7~-----6---|---------------------------|
 --4--------6-8---------------6-|--8----11--10--8-----6-----|
 ---------8---------------------|------------------8-----6--|
 --L----------------------------|--------9---8--------------|
 -------------------------------|---------------7-----6-----|

>
E E E E S E. E E E. S Q. E S S E
 
 --------11--9----------------|----------9g11-------------------|
 ---------------9s-11------7--|--/11-------11-------------------|
 --8------8--6----------8-----|-----------------------------10--|
 --8------------6s--8------4--|---/8---------------------11-----|
 --6--------------------6-----|--------------------9--11--------|
 -----------------------------|---------------------------------|

E E Q S S S S S S S S Q E. S E Q E
 
 ---------------------------------------------|--------------------------|
 --------12g12b----(12)-11--------------------|--------------6h--7----7--|
 --8-----------------------11-----------------|--------------6---L----8--|
 -----------------------------13-11-----------|-----------------------9--|
 --6--------------------------------13-11-13s-|--9~----------------------|
 ---------------------------------------------|--------------------------|

E E S S E S E. E E Q. E E E E E
 
 --------11---9----------------|----------2--4--6--------|
 --L-------------9s-11------7--|--11------0--4-----------|
 --L------8---6----------8-----|-------------------------|
 --L-------------6s--8------4--|---8------------4--------|
 ------------------------6-----|----------------------4--|
 ------------------------------|-------------------------|

E E S S S S E Q S S Q E E E E E E
 
 --4----------------------------|---------------------------|
 --2-------------7g9--7~--------|---------------------------|
 ------------6-8------------6---|--8----11--10--8-----6-----|
 ----------8------------------6-|------------------8-----6--|
 -------------------------------|--------9---8--------------|
 -------------------------------|---------------7-----6-----|

v > >
E E E E Q Q Q E S S E E E E
 
 --------6S--9--L----6----|--2--------------------2--|
 -------------------------|--0--------------0-----0--|
 --8-----3S--6--L----3----|--4--------------4-----4--|
 -------------------------|--4--------------4-----4--|
 --6----------------------|-----------------------4--|
 -------------------------|--4----L--4-4-4-----------|

> > >
Q S S E E E E E Q Q E E E E
 
 --------------6S--7--6-----|------------------------|
 --L--------7---------------|--7------------------7--|
 --L----8------3S--4--3-----|--4------------6-----4--|
 --L--------4---------------|--4------------------4--|
 -------6-------------------|---------------------4--|
 ------------------------4--|-------4-------6--------|

> > ^
E E E E E E E E Q E S S E E E E
 
 ------------9-----11---------|--------------------------|
 --L-----11-----L------11-----|--7--------------7-----7--|
 --L---------6------8---------|--4--------------4-----4--|
 --L------8-----L-------8-----|--4--------------4-----4--|
 --L--------------------------|-----------------------4--|
 -----------------------------|--4----4--4-4-4-----------|

Q S S S S E E E S S Q E E Q Q
 
 ------------------------------|------------------------|
 --L------------7g9--7-----6---|-------11--9--7----6----|
 --L--------6-8--------------6-|--8-----------8----6----|
 --L------8--------------------|------------------------|
 --L---------------------------|--------9--8------------|
 ------------------------------|--------------7----6----|

E E E E S E. E E E E H.
 
 --------11--9----------------|---------11------------|
 ---------------9s-11------7--|--11-----11------------|
 --8------8--6----------8-----|-----------------------|
 --x------------6s--8------4--|---8-------------------|
 --6--------------------6-----|-----------------------|
 -----------------------------|-----------------------|
 |---3--| |--3--| |----3---| 

E. S E E E E E E E E S S
 
 --------------7--9--11--9--7---------------|
 --------9g9b------------------11-----7h-9p-|
 ------6---------------------------8--------|
 -------------------------------------------|
 -------------------------------------------|
 -------------------------------------------|

[BM7] ^ ^ TH TH TH TH TH TH TH
Q. S S S S S S S S E
 
 ----------------------------------6------|
 --------------------------7--------------|
 --11--------------6-----------------6--|
 ------------6-----------------6----------|
 ----------6-----------6------------------|
 --------------7--------------------------|

w/Touch Harm.
TH
Q E E E E E E Q. E E E E E
 
 ----------------11--9----------------|----------------------------|
 --7------------------11s--9-----7--|--11----------11------9-----|
 -----------------8--6----------8-----|---------------8------8-----|
 ------------------------8s--6-----4--|---8-----------9------8-----|
 -------------------------------6-----|----------------------------|
 -------------------------------------|----------11------11-----9--|

Q S S S S Q S S S S E. S E E E E Q
 
 -----------------------------------|---------------------9----|
 --7----------------9---------------|--------7--9--11-----9----|
 --6---------10h-11------11-10------|--8-----6--8---------6----|
 --6---------------------------11---|--------------------------|
 ---------11------------------------|------9--------9----------|
 -------9---------------------------|--------------------------|

Q E Q. Q [B/G#]Q. S S E E E [Bsus2]E
 
 --11----6s--9------6----|----------------------------|
 --11--------------------|--7-------------7-----7-----|
 --------3s--6------3----|--4-------------4-----4-----|
 ------------------------|--4-------------4-----4-----|
 ------------------------|--6--------4----------4-----|
 ------------------------|--4------4---4--------------|

E E E E E E E E Q Q E Q E
 
 --------------6--7--6-----|--2---------19--18----16--|
 --L--------7--------------|--2---------16--14----16--|
 --L-----8-----3--4--3-----|--4-------------------13--|
 --L--------4--------------|--4---------18--16--------|
 --L-----6-----------------|--------------------------|
 -----------------------4--|--------------------------|

E E E Q E Q Q Q E Q E
 
 -----14-----11-------13----|--14-----L------------2--|
 -----14-----12-------------|----------------------4--|
 -----11-----11-------13----|--16-----L----4--x----4--|
 ---------------------15----|--16-----L----4--x----4--|
 ---------------------------|--------------6--x-------|
 ---------------------------|-------------------------|

E E S S S S E Q S S E E E E Q E E
 
 --L-------------------------------------|---------------------9-----|
 --L-------------------------------------|---------7--9--11----9-----|
 --L----------------11g11b--11~----10----|---------4------8----6-----|
 --L----------11-13-------------------11-|--13-----4--6--------------|
 ----------13----------------------------|------------6--------------|
 ----------------------------------------|----------------9-------6--|

(Dist.)
>
H S S S S S S S S
 
 --6----------------------------------11h-14s-|
 --6---------------------------11h-14---------|
 --8------------------------11----------------|
 --8~----------------11h-13-------------------|
 --8------------------------------------------|
 --6------------------------------------------|

Q S S E E. S S S S S Q E E E Q E
 
 --18~----16s-14s-18~--L------------14s-18s-|--16s~----14h--16--L--14---------|
 -----------------------------11-14---------|----------------------------16~--|
 --------------------------13---------------|---------------------------------|
 -------------------------------------------|---------------------------------|
 -------------------------------------------|---------------------------------|
 -------------------------------------------|---------------------------------|

E S S S S S S Q S S E
 
 ------------------------------------------|
 ---L--14----16-16-14----16~----14---------|
 ---------15----------15-----------13-15~--|
 ------------------------------------------|
 ------------------------------------------|
 ------------------------------------------|

E S S S S S S S S S S S S S S
 
 -----------------------11-----------------------------|
 ----------------11h-14----14p-11----------------------|
 ---L---------13------------------13p-11---------------|
 ----------------------------------------13p-11--------|
 ------11h-13------------------------------------------|
 -----------------------------------------------14S-11-|

Q S S S S Q S S S S S S S S S S Q E E E
 
 ---------------------------------------|-----------------11-14----16br--L--15--|
 ---------------------------------------|--------------11-----------------------|
 --13b----13-11-------11~---------------|-----------11--------------------------|
 ------------------------------13-------|--------13-----------------------------|
 ---------------------------------------|--11-13--------------------------------|
 ---------------9S-11-------------9S-11-|---------------------------------------|
 |---3--| |---3--| 

S S S S S S S S S S S S S S S S E
 
 --L-11-13----11----------------12p-11----11h-----------|
 ----------13----11-13----11-----------14-----14-12-11--|
 ----------------------12----13-------------------------|
 -------------------------------------------------------|
 -------------------------------------------------------|
 -------------------------------------------------------|

E S S S S S S Q S S S S Q S S E E S S E S S
 
 ------------------------------------------|---------------------------------|
 ---L-----14-11----------------10----------|--9~---------9--L----------------|
 ------13-------11----------------11-------|--------8----------10------------|
 ------------------12----------------12----|----------11----------11-8-------|
 ---------------------14-13-------------13-|-------------------------------9-|
 ------------------------------------------|----------------------------11---|

S S S S E E Q S S S S
 
 --------------11--11~--L------16-15----|
 -----------11-----------------------16-|
 ---------------------------------------|
 --------13-----------------------------|
 --11-13--------------------------------|
 ---------------------------------------|
 |--6--| |--6--| |--6--| |--6--| 

S S S S S S S S S S S S Q S T T T T T T
 
 --13-------------------------------------------------16-21-18-16-|
 -----13----------------------------------------16-19-------------|
 --------15-13----15-13----------------------18-------------------|
 --------------15-------15-13-------------------------------------|
 -----------------------------15-13-------------------------------|
 -----------------------------------15-13-------------------------|

T T T T T T T T T T T T T T T T T T T T T T T T T T
 
 --18-16-------------------------------------------------------------------------
 --------19-16-19-16-------16-14-------------14----------------------------------
 --------------------18-15-------15-13----------15-13----13----------13----------
 --------------------------------------16-13----------16----16-13-------16-13----
 -----------------------------------------------------------------16----------16-
 --------------------------------------------------------------------------------

E S S S S E Q. S S Q. E E E E E
 
 ------------------------------------11-|--16------14br--L--L--L------|
 --14br--11----------14b~--L------11----|-------------------------16--|
 -----------13-11-----------------------|-----------------------------|
 -----------------13--------------------|-----------------------------|
 ---------------------------------------|-----------------------------|
 ---------------------------------------|-----------------------------|

(Clean)
E S S S S S S Q. E E E E E E E E E
 
 --------------15-16-18---------------|-----------------------------------|
 --L--------16----------16------18br--|--L--18--16--16--------------------|
 --------15---------------------------|-----------------18-------------L--|
 -------------------------------------|---------------------6-------8--9--|
 -----15------------------------------|-----------------------------------|
 -------------------------------------|-----------------------------------|

Q E E E Q E E S S E E Q. S S
 
 -------------------------|-----6h-7p-6----------------|
 --7----11--9--L-------7--|--L-----------9--L----------|
 -----------------8-------|------------------------6-8-|
 -------------------------|----------------------------|
 -------------------------|----------------------------|
 -------------------------|----------------------------|

Q E E E S S E E H. E E Q E E E Q E
 
 -------6---------------9~--|--L------------------|--------------------------|
 --7-------9--L------7------|---------------------|--7~----11--9--L-------7--|
 ----------------6-8--------|---------------------|------------------8-------|
 ---------------------------|---------------8--9--|--------------------------|
 ---------------------------|---------------------|--------------------------|
 ---------------------------|---------------------|--------------------------|

bottleneck (Dist.)
|---3--|
E E S S S E Q E E S S E H.
 
 -----------------------------------------|-------------------------------|
 --L--11--12p-11p-9-9--L----/9s--------7--|--/11s----9s-11~--L------------|
 -----------------------------------------|-------------------------------|
 -----------------------------------------|-------------------------------|
 -----------------------------------------|-------------------------------|
 -----------------------------------------|-------------------------------|

E S S E Q E S E. W
 
 -------------------------/11s--L-13s---|--/14~----------------|
 ---L--/15s-14s-15----------------------|----------------------|
 -------------------15------------------|----------------------|
 ---------------------------------------|----------------------|
 ---------------------------------------|----------------------|
 ---------------------------------------|----------------------|

E E S S S S E E E E E. S E S S H
 
 ---------------16---------------------|-------9-L--------------------|
 ----------16--------18s--16s--14---L--|--/9--------11s-9s-11~--------|
 -----/15------------------------------|------------------------------|
 --------------------------------------|------------------------------|
 --------------------------------------|------------------------------|
 --------------------------------------|------------------------------|

Q E S S H W
 
 -------------------------------|----------------------|
 ---L----/15--------------------|----------------------|
 -------------15s-14s-13--------|--/11~----------------|
 -------------------------------|----------------------|
 -------------------------------|----------------------|
 -------------------------------|----------------------|

H Q E S S W
 
 -------------------------|----------------------|
 ---------------------7---|----------------------|
 ---L-------------------8-|--/10~----------------|
 -----------------/8------|----------------------|
 -------------------------|----------------------|
 -------------------------|----------------------|

E E E E E E S E. W
 
 -----------------------/11s--L-13s---|--14~----------------|
 -----/15s--13s--11--L----------------|---------------------|
 -------------------------------------|---------------------|
 -------------------------------------|---------------------|
 -------------------------------------|---------------------|
 -------------------------------------|---------------------|

E E S S S S E E Q E. S E S S H
 
 ---------------16-------------------|-------9-----------------------|
 ----------16--------/18s--16--14----|--/9--------/11s-9s-11~--------|
 -----/15----------------------------|-------------------------------|
 ------------------------------------|-------------------------------|
 ------------------------------------|-------------------------------|
 ------------------------------------|-------------------------------|

(Clean
H Q E E H. E E
 
 --------------------------------|----------------------------|
 ---L--------/14-----------------|----------------------------|
 -------------------14g15s--13s--|--11~------------L--13----|
 --------------------------------|----------------------------|
 --------------------------------|----------------------------|
 --------------------------------|----------------------------|

w/Touch Harm.
NH
E E E E E E E E Q. E E S S E E
 
 --14---------------------------------2--------|--6-------------------6--|
 ----------------------14--12--L--------0--|--7------7--L------7--x--|
 ----------------------------------------3-----|--6------------6-8----6--|
 ----------------12--------------------------|-------------------------|
 ----------------------------------------------|-------------------------|
 ----------------------------------------------|-------------------------|

E E S S E H E E E E E S S E E Q. E E Q E
 
 --L--7--4h-5p-4--2--------|--6-------------------------|---------------9-------|
 --------x--------x--------|--7-----9--7--L-------7--7--|--L------7--L--L-------|
 --L-----6--------4--------|-----6-----x-----6h-8----x--|---------x-------------|
 --------------------------|-----------9--L--9-------8--|--L------9--L--L-------|
 --------------------------|----------------------------|-----------------------|
 --------------------------|----------------------------|-----------------------|

Touch Harm.
TH
E E E E E S S E E E Q E H Q. E Q. E
 
 --6----------------------6--|--L--9----9--L---------|--9------9--L---------|
 --7-----9--7--L-------7--7--|--L-------7----7---------|--7------7--L---------|
 -----6-----x-----6h-8----6--|--L-------8----8---------|--6------6--L---------|
 -----------9--L--9----------|----------9----9---------|--8------8--L---------|
 ----------------------------|-------------------------|----------------------|
 ----------------------------|-------------------------|-------------------6--|

H Q. S S H E E E E Q E E E E E S S
 
 -----------------------|--2-----------2-----2--|--L----------6--7--6------|
 --9\-------------------|--2-----------2-----2--|--L-------7--x--x--x------|
 --6\-------------------|--4-----------4-----4--|--L----8--x--3--4--3------|
 --6\-------------------|--4-----------4-----4--|--L----x--4---------------|
 --x----------------x-x-|--x-----------x-----x--|-------6------------------|
 --L----------------x-x-|--4-----------4-----4--|--L-------------------4-4-|

H E E E E Q E S S E S S E E H E E E E
 
 --2-----------------2--|--L----6--7-9-L--11----------|---2------------2-----2--|
 --2-----------4-----4--|--L----x--x-x-----x---11-----|---0------------0-----0--|
 --4-----------------4--|--L----3--4-6-L---8----x-----|---3------------3-----3--|
 --4-----------------x--|-----------------------8-----|--(4)--------------------|
 --x-----------4-----4--|--L--------------------------|---x---------------------|
 --4--------------------|-----------------------------|---4---------------------|
 |----3---| |-----3----| 

E S S E E E E E E S S S S Q Q E E E E
 
 --L----------------11------------------------------|------------------------2--|
 --L------------14------14b-------------------------|------------------------4--|
 --L-------13b---------------13pbr--L--13-11--------|--11~-------------6-----4--|
 -------11-----------------------------------13p-11-|---------13-------4-----x--|
 ---------------------------------------------------|------------------x-----4--|
 ---------------------------------------------------|------------------6--------|

(Dist.)
Q E E Q. S S S S E S S E Q S S E
 
 --L----2-----4-----------------|------------13-14-------------11-9--|
 --L----4-----6-----------------|--------16--------16--L----12-------|
 --L----4-----6-----------------|------------------------------------|
 -------------x-----------------|-----16-----------------------------|
 --L----------x-----------------|--14--------------------------------|
 ----------6--L------9-------11-|------------------------------------|

E E E E Q. S S E. S S S S S Q. S S
 
 --L---------------------------|---------------9-9-14~-----------|
 -----9------------------------|---------11-12-------------------|
 --------13--------------------|---------------------------------|
 ------------13--11------------|------11-----------------------8-|
 ------------------------------|--9-------------------------11---|
 ------------------------11-13-|---------------------------------|

E E E E H S S S S S S S S Q E S S
 
 -------------------------|------------9-7------------------|
 ---------11--9--L--------|--------7-9-----11-L-------11-12-|
 -----11------------------|------8--------------------------|
 --9----------------------|----9----------------------------|
 -------------------------|--6------------------------------|
 -------------------------|---------------------------------|

S S S S E S S H S S S S S S S S Q. S S
 
 -----14-11--------------------------|----------------6-L-----------|
 --14-------14-12g11--9-9------------|--------------7---------------|
 -------------------------11~--------|------------8-----------------|
 ------------------------------------|--------6-9-------------------|
 ------------------------------------|----6-9---------------------9-|
 ------------------------------------|--9----------------------11---|
 |--3--| |--3--| 

T T T S T T T S S T T T T S S S S S S T T S S
 
 ----------------------------------------14-16-14-------14--------------|
 ----------------------------------14-16----------16-14----16-14--------|
 ---------------------------13h-16-------------------------------15p-13-|
 --8h-9p-8----8h-9p-8----16---------------------------------------------|
 ----------11---------11------------------------------------------------|
 -----------------------------------------------------------------------|

H E E E E Q E E E E E E H E E E E
 
 ---------------2-----2--|--L----------6--7--6-----|--2-----------------2--|
 ---------------2-----4--|--L-------7--x--x--x-----|--2-----------------4--|
 --11-----------4-----4--|--L----8--x--3--4--3-----|--4-----------6-----4--|
 ---------------4-----4--|--L----x--4--------------|--4-----------4-----x--|
 ------------------------|-------6-----------------|--------------x-----4--|
 ------------------------|----------------------4--|--------------6--------|

E S S S S E Q Q H E E E E
 
 -----12-12-11-11-10--9----6----|--------------------2--|
 -----10-10--9--9--8--7----4----|--7-----------7-----4--|
 ------x--x--x--x--x--x----x----|--4-----------4-----4--|
 -----10-10--9--9--8--9----4----|--4-----------4-----x--|
 -------------------------------|--------------------4--|
 -------------------------------|-----------------------|

Q E E E E E E H E E E E
 
 --L-------11--9--11---------|-----------------------|
 --L--------x--x---x--11-----|--7-----------------4--|
 --L--------8--6---8---x--8--|--4-----------6-----4--|
 ----------------------8--x--|--4-----------4-----4--|
 --L----6-----------------6--|--------------x-----4--|
 ----------------------------|--------------6--------|

Q S S S S E Q S S Q E E E E E E
 
 -----------------------------|---------------------------|
 --L------------7g9--7----6---|---------------------------|
 --L--------6-8-------------6-|--8----11--10--8-----6-----|
 --L------8-------------------|--------x---x--x--8--x--6--|
 --L--------------------------|--------x---x--x-----x-----|
 -----------------------------|-------11---9--8-----6-----|

Q E E E E E E Q E E E E E E
 
 -------------------------|-----------------9------12--|
 --4----4-----2-----2-----|-------7--9--11-----14------|
 ----------3-----1-----1--|-------8-----11-----14------|
 -------------------------|--4----9------9-------------|
 -------------------------|--x----7--------------------|
 --4----3-----2-----1-----|--0-------------------------|

S S S S H. W
 
 --------------14------------|--L----------------||
 -----------16--L------------|--L----------------||
 --------16-----L------------|--L----------------||
 -----16--------L------------|--L----------------||
 --14-----------L------------|--L----------------||
 ----------------------------|-------------------||

Duration Legend
 
 ---------------

W - whole
H - half
Q - quarter
E - 8th
S - 16th
T - 32nd
X - 64th
. - note dotted
|-n-| - n-tuplets
Tablature Legend
 
 ----------------

L - tied note
x - dead note
g - grace note
(n) - ghost note
> - accentuded note
NH - natural harmonic
AH - artificial harmonic
TH - tapped harmonic
SH - semi harmonic
PH - pitch harmonic
h - hammer on
p - pull off
b - bend
br - bendRelease
pb - preBend
pbr - preBendRelease

Important: The song above is NOT stored on the Chordie server. The original song is hosted at www.guitaretab.com. Chordie works as a search engine and provides on-the-fly formatting. Chordie does not index songs against artists'/composers' will. To remove this song please click here.

Text color:
Chord color:
Chord grids: 
Font size:    
Page size: 

B/G# Bm7 Bsus2
Rate #1 of 2 versions

Jango Player

Login - add to songbook

SHARE PAGE  




You need to log in to post comments