Guitar Tabs, Chords and Lyrics
Update 23.10: Songbooks are teporarily down. Will be restored! Might take 24-48h! Sorry for the inconvenience!


Woodstock  Eva Cassidy

EVA CASSIDY - WOODSTOCK
 
 -----------------------

GUITAR TAB:
Capo: 1
(Intro)
[Am] [Dsus4] [Am7] [D] [Am] [Dsus4] [Am7] [D]  
 
 E -------------------------------|-----------------|-------------------------------|-----------------|
 H -----1-----------3-------------|---1-----3---0-3-|--------0h1----------3---------|---1-----3-------|
 G ---------2-----------0-------0-|---0-----2-------|-------------0-----------0-----|---0-----2-------|
 D ------------2s4----------4-----|-----------------|-----2----------2s4----------4-|-----------------|
 A -0-----------------------------|-0-----0---------|-0-----------------------------|-0-----0---------|
 E -+-------+-------+-------+-----|-+---+---+---+---|-+-------+-------+-------+-----|-+---+---+---+---|

(Verse)
[Am] [Dsus4] [Am] [Dsus4] [D] [Dsus4] [Dsus2] [Dsus4]  
 
 E -------------------------------|-------------------------------|---------2-------|-0-----0-----3---|
 H -1---------------3-------------|-----------------3-------------|-3-----3-----3---|-----3-----3-----|
 G ---------2-----------0-------0-|---------2-----------0-------0-|-----2-----2---2-|---2-----2-----2-|
 D -----2------2s4----------4-----|-----2------2s4----------2-----|---0-------------|-0---------------|
 A -0-----------------------------|-0-----------------------------|-----------------|-----------------|
 E -+-------+-------+-------+-----|-+-------+-------+-------+-----|-2---+---+---+---|-+---+---+---+---|

[D] [D] [D/C] [Am] [Dsus4] [Am7] [D]  
 
 E -2-----2-----2---|-----------------|-------------------------------|-----------------|
 H -----3-----3-----|-----3-----------|-----------------3-------------|---1-----3-------|
 G ---2-----2-----2-|---2---2-----0---|---------2-----------0-------0-|---0-----2-------|
 D -0---------------|-0---------0---0-|-----2------2s4----------4-----|-----------------|
 A -----------------|---------3-------|-0-----------------------------|-0-----0---------|
 E -+---+---+---+---|-+---+---+---+---|-+-------+-------+-------+-----|-+---+---+---+---|

[Am] [Dsus4] [Am] [Dsus4] [D] [Dsus4] [Dsus2] [Dsus4]  
 
 E -------------------------------|-------------------------------|---------2-------|-0-----0-----3---|
 H -1---------------3-------------|-----------------3-------------|-3-----3-----3---|-----3-----3-----|
 G ---------2-----------0-------0-|---------2-----------0-------0-|-----2-----2---2-|---2-----2-----2-|
 D -----2------2s4----------4-----|-----2------2s4----------2-----|---0-------------|-0---------------|
 A -0-----------------------------|-0-----------------------------|-----------------|-----------------|
 E -+-------+-------+-------+-----|-+-------+-------+-------+-----|-2---+---+---+---|-+---+---+---+---|

[D] [D] [D/C] [Am] [Dsus4] [Am7]  
 
 E -2-----0-----2---|-----------------|-------------------------------|-----0-0---------|
 H -----3-----3---3-|-----3-------3---|-----------------3-------------|---1-1-0---------|
 G ---2-----2-------|---2---2---2---2-|---------2-----------0-------0-|---0-0-----------|
 D -0---------------|-0---------------|-----2------2s4----------4-----|---2-------------|
 A -----------------|---------3-------|-0-----------------------------|-0---------------|
 E -+---+---+---+---|-+---+---+---+---|-+-------+-------+-------+-----|-+---+---+---+---|

(Chorus)
[Dsus4] [D] [Am] [Dsus4] [D] [Dsus4] [Am7] [G]  
 
 E -3-----2---------|-------------------------------|---------3-------|-----------------|
 H -3---3-3---3-----|-----------------3-------------|-3-----3-----3---|-3-------1---3---|
 G -2-2-----2-----2-|---------2-----------0---------|-----2-----2---2-|-0---0---0---0---|
 D -------------0---|-----2------2s4----------2-----|---0-------------|---4---4---2---2-|
 A -----------------|-0-----------------------------|-----------------|-0-------0---2---|
 E -+---+---+---+---|-+-------+-------+-------+---3-|-2---+---+---+---|-+---+---+---+---|

[C] [G] [B/G] [G/C] [Dsus2] [Dsus2/C] [Am] [Dsus4]  
 
 E -----------------|-----------------|-------0-------0-|-------------------------------|
 H ---------1-------|-----------------|-----3-------3---|-----------------3-------------|
 G -----0-----0---0-|-----0-----------|---2-------2-----|---------2-----------0-------0-|
 D ---2---0-----0---|---0---0---0---0-|-0---------------|-----2------2s4----------4-----|
 A -3---------------|---------2---3---|---------3-------|-0-----------------------------|
 E -+---+---+---+---|-3---+---+---+---|-+---+---+---+---|-+-------+-------+-------+-----|

[Am7] [D] [Am] [Dsus4] [Am7] [D]  
 
 E -----------------|-------------------------------|-----------------|
 H ---1-----3---0-3-|--------0h1-----1s3------------|---1---3---------|
 G ---0-----2-------|--------2-------0-0------0-----|---0---2---------|
 D -----------------|-----2-------2--2s4--4-------4-|-----------------|
 A -0-----0---------|-0-----------------------------|-0---------------|
 E -+---+---+---+---|-+-------+-------+-------+-----|-+---0---+---+---|

LYRICS:
(Verse)
I came upon a child of God
He was walking along the road
And I asked him "tell me where are you going"
This he told me
Said I'm going down to Yasgur's farm
Gonna join in a Rock'n'Roll band
Got to get back to the land
And get my soul free
(Chorus)
We are stardust
We're golden
And we've got to get ourselves
Back to the Garden
(Verse)
Can I walk along beside you
I have come here to lose the smog
And I feel like I'm a part
Of something turning round and round
And maybe it's the time of year
Maybe it's the time of man
And I don't know who I am
But life is for learning
(Chorus)
(Verse)
By the time we got to woodstock
We were half a million strong
And everywhere was the song
And the celebration
And I dreamed I saw the bomber jet planes
Riding shotgun in the sky
Turning into butterflies
Above our nation
(Refrain)
 
 -----------------------------------------------------------

This is not the final version. If anyone has additions
or if the tab does not correspond with the original version
please feel free to let me know.
MarkusMauch@gmx.de
 
 -----------------------------------------------------------


Important: The song above is NOT stored on the Chordie server. The original song is hosted at www.guitaretab.com. Chordie works as a search engine and provides on-the-fly formatting. Chordie does not index songs against artists'/composers' will. To remove this song please click here.

Text color:
Chord color:
Chord grids: 
Font size:    
Page size: 

Am Am7 B/G C D D/C Dsus2 Dsus4 G G/C
Rate #1 of 4 versions

Jango Player

Login - add to songbook

SHARE PAGE  




You need to log in to post comments