Guitar Tabs, Chords and Lyrics
Login is temporarily disabled for some users. Do not panic. Will be back in an hour or two. DO NOT REREGISTER!!


Kathy's Song  Eva Cassidy

KATHY'S SONG
Intro
 
 E -----------------------------------|-----------------------------------|
 H --3---------3-------3-------3------|------------3-------3-------3------|
 G --------0-------0-------0-------0--|--------0-------0-------0-------0--|
 D ------4-------4-------4-------4----|------4-------4-------4-------4----|
 A --5-------5-------5-------5--------|--5-------5-------5-------5--------|
 E -----------------------------------|-----------------------------------|

[C] [G]  
 
 E -----------------------------------|-----------------------------------|
 H ----1-------1-------1-------1------|--1p0-------0-----0h1-------1------|
 G --------0-------0-------0-------0--|--------0-------0-------0-------0--|
 D ------2-------2-------2-------2----|------0-------0-------2-------2----|
 A --3-------3-------3-------3--------|-----------------------------------|
 E --+-------+-------+-------+--------|--3-------3-------3-------3--------|

[G] [Dadd9]  
 
 E -----------------------------------|-----------------------------------|
 H --3---------3-----1---------1------|------------3-------3-------3------|
 G --------0-------0-------0-------0--|--------0-------0-------0-------3--|
 D ------0-------0-------2-------2----|------4-------4-------4-------4----|
 A -----------------------------------|--0-------0-------0-------0--------|
 E --3-------3-------3-------3--------|--+-------+-------+-------+--------|

[C] [G]  
 
 E -----------------------------------|-----------------------------------|
 H ----1-------1-------1-------1------|--1p0-------0-----1---------1------|
 G --------0-------0-------0-------0--|--------0-------0-------0-------0--|
 D ------2-------2-------2-------2----|------0-------0-------2-------2----|
 A --3-------3-------3-------3--------|-----------------------------------|
 E --+-------+-------+-------+--------|--3-------3-------3-------3--------|

Verse 1
[C] [G]  
 
 E -----------------------------------|-----------------------------------|
 H --0---------0-----1---------1------|--0----------0----1---------1------|
 G --------0-------0-------0-------0--|--------0-------0-------0-------0--|
 D ------0-------0-------2-------2----|------0-------0-------2-------2----|
 A -----------------------------------|-----------------------------------|
 E --3-------3-------3-------3--------|--3-------3-------3-------3--------|

I hear the drizzle
[C] [G]  
 
 E -----------------------------------|-----------------------------------|
 H --0---------0--------0------0------|----1--------1------0------0-------|
 G --------2-------2-------2-------2--|--------2-------2-------2-------2--|
 D ------0-------0-------0-------0----|------2-------2-------0-------0----|
 A -----------------------------------|--0-------0------------------------|
 E --3-------3-------3-------3--------|------------------3-------3--------|

of the rain (tabs x 2!!) like a memo-
[D7/F] [D7/F]  
 
 E -----------------------------------|-----2--------------2--------------|
 H ------------1-------1-------1------|------------1---------------1------|
 G --------2-------2-------2-------2--|--------2-------2-------2-------2--|
 D ------0-------0-------0-------0----|------0-------0-------0-------0----|
 A -----------------------------------|-----------------------------------|
 E --2-------2-------2-------2--------|--2-------2-------2-------2--------|

ry it falls
[G] [D]  
 
 E -----------------------------------|--------------|
 H --3---------3-----3---------3------|--------------|
 G --------0-------0-------2-------2--|--------------|
 D ------0-------0-------0-------0----|--------------|
 A -----------------------------------|--------0--2--|
 E --3-------3-------2-------2--------|--3--3--------|

soft and warm con tinu
[C] [Am] [G]  
 
 E -----------------------------------|-----------------------------------|
 H --1---------1-------1-------1------|------------1-----0---------0------|
 G --------0-------0-------0-------0--|--------2-------2-------2-------2--|
 D ------2-------2-------2-------0----|------2-------2-------0-------0----|
 A --3-------3-------3-------2--------|--0-------0------------------------|
 E --+-------+-------+-------+--------|------------------3-------3--------|

ing tapping on my
D G Verse 2
 
 E -----------------------------------|-----------------------------------|
 H --3---------3---------------0------|--0---------0-----1---------1------|
 G --------2-------2-------0-------0--|--------0-------0-------0-------0--|
 D ------0-------0-------0-------0----|------0-------0-------2-------2----|
 A -----------------------------------|-----------------------------------|
 E --2-------2-------3-------3--------|--3-------3-------3-------3--------|

roof and walls.
[C] [G] [C]  
 
 E -----------------------------------|-----------------------------------|
 H --1---------1-----0--------0-------|--1---------1-----0---------0------|
 G --------0-------0-------0-------0--|--------0-------0-------2-------2--|
 D ------2-------2-------0-------0----|------2-------2-------0-------0----|
 A -----------------------------------|-----------------------------------|
 E --3-------3-------3-------3--------|--3-------3-------3-------3--------|

My mind distracted...
going on same as Verse 1
After verse 2:
 
 E -----------------------------------|
 H --3---------3-------3-------3------|
 G --------0-------0-------0-------0--|
 D ------4-------4-------4-------4----|
 A --5-------5-------5-------5--------|
 E -----------------------------------|

[C] [G]  
 
 E -----------------------------------|-----------------------------------|
 H ----1-------1-------1-------1------|--1p0-------0-----0h1-------1------|
 G --------0-------0-------0-------0--|--------0-------0-------0-------0--|
 D ------2-------2-------2-------2----|------0-------0-------2-------2----|
 A --3-------3-------3-------3--------|-----------------------------------|
 E --+-------+-------+-------+--------|--3-------3-------3-------3--------|

[C] [G]  
 
 E -----------------------------------|-----------------------------------|
 H --0---------0-----1---------1------|--0----------0----1---------1------|
 G --------0-------0-------0-------0--|--------0-------0-------0-------0--|
 D ------0-------2-------2-------2----|------0-------0-------2-------2----|
 A -----------------------------------|-----------------------------------|
 E --3-------3-------3-------3--------|--3-------3-------3-------3--------|

And as I watched...
After Verse 3 bridge:
 
 E -----------------------------------|-----------------------------------|
 H --3---------3-------3-------3------|------------3-------3-------3------|
 G --------0-------0-------0-------0--|--------0-------0-------0-------0--|
 D ------4-------4-------4-------4----|------4-------4-------4-------4----|
 A --5-------5-------5-------5--------|--5-------5-------5-------5--------|
 E -----------------------------------|-----------------------------------|
 E -----------------------------------|-----------------------------------|
 H ---1--------1-------1-------1------|--1p0-------0-----0h1-------1------|
 G --------0-------0-------0-------0--|--------0-------0-------0-------0--|
 D ------2-------2-------2-------2----|------0-------0-------2-------2----|
 A --3-------3-------3-------3--------|-----------------------------------|
 E --+-------+-------+-------+--------|--3-------3-------3-------3--------|
 E -----------------------------------|-----------------------------------|
 H --0---------0-----1---------1------|-----------------------------------|
 G --------0-------0-------0-------0--|------0-------0-------0----2-2-----|
 D ------0-------0-------2-------2----|------------------------0----------|
 A -----------------------------------|-----------------------------------|
 E --3-------3-------3-------3--------|--3-------3-------3--------3-------|
 E -----------------------------------|-----------------------------------|
 H --3---------3---------------3------|------------3-------3-------3------|
 G --------2-------2-------2-------2--|--------2-------2-------2-------2--|
 D ------0-------0-------0-------0----|------0-------0-------0-------0----|
 A -----------------------------------|-----------------------------------|
 E --3-------3-------3-------3--------|--3-------3-------3-------3--------|
 E -----------------------------------|
 H ----1-------1-------1-------1------|
 G --------2-------2-------0-------0--|
 D ------2-------2-------0-------0----|
 A --0-------0------------------------|
 E ------------------3-------3--------|
 E -----------------------------------|-----2--------------2--------------|
 H ---1--------1-------1-------1------|-----1------1-------1-------1------|
 G --------2-------2-------2-------2--|--------2-------2-------2-------2--|
 D ------0-------0-------0-------0----|------0-------0-------0-------0----|
 A -----------------------------------|-----------------------------------|
 E --2-------2-------2-------2--------|--2-------2-------2-------2--------|
 E -----------------------------------|--------------|
 H --0---------0-----3---------3------|-----0--1--2--|
 G --------0-------0-------2-------2--|--------------|
 D ------0-------0-------0-------0----|--------------|
 A -----------------------------------|--------0--3--|
 E --3-------3-------2-------2--------|--3--3--------|
 E --0--------------------------------|----------------------------2------|
 H ------------1-------1-------1------|------------1----------------------|
 G --------0-------0-------0-------0--|--------2-------2------2-----------|
 D ------2-------2-------2-------0----|------2-------2------0-------------|
 A --3-------3-------3-------2--------|--0---------------------------0h2-3|
 E --+-------+-------+-------+--------|--+--------0-------2------2--------|
 E --0--------------------------------|
 H ----------3-------1-------3--------|
 G --------------------------0--------|
 D -----------------------------------|
 A --3-------2-------0----------------|
 E --+-------+-------+-------3--------|

I hear the drizzle of the rain
Like a memory it falls
Soft and warm continuing
Tapping on my roof and walls
My mind's distracted and confused
My thoughts are many miles away
They lie with you when you're asleep
Kiss you when you start the day
And as I watch the drops of rain
Weave their weary paths and die
I know that I am like the rain
There before the grace of you go I

Important: The song above is NOT stored on the Chordie server. The original song is hosted at www.guitaretab.com. Chordie works as a search engine and provides on-the-fly formatting. Chordie does not index songs against artists'/composers' will. To remove this song please click here.

Text color:
Chord color:
Chord grids: 
Font size:    
Page size: 

Am C D D7/F Dadd9 G
Rate #1 of 1 versions

Jango Player

Login - add to songbook

SHARE PAGE  



You need to log in to post comments