Guitar Tabs, Chords and Lyrics
Major upgrade!! After one year development the new version of Chordie is now online! Please give feedback.


Fields of Gold  Eva Cassidy

Capo on 7th fret.
INTRO:
[Bm]Oooo[Bm] [G] [G]
 
 |----------------|----------------|----------------|----------------|
 |-3--------------|-3--------------|-0-----------0--|-------------0--|
 |---------4------|---------4------|---------2------|---------2------|
 |-----4-------4--|-----4-------4--|-----0----------|-----0----------|
 |-2--------------|-0--------------|----------------|----------------|
 |----------------|----------------|-3--------------|-3--------------|

[D] [D] [D] [D]  
 
 |----------------|-2h3------------|-2--------------|-2--------------|
 |---------3------|-----3-------3--|---------2------|----------------|
 |-----2-------2--|---------2------|-----3-------3--|----------------|
 |-0--------------|----------------|-0--------------|-0--------------|
 |----------------|----------------|----------------|----------------|
 |----------------|----------------|----------------|----------------|

[Bm]You'll remember me when the [G]west wind moves
Among the f[A]ields of [D]barley
You can t[Bm]ell the sun in his [G]jealous sky
When we [Em]walked in f[A]ields of g[D]old
So she took her love for to gaze awhile
Among the fields of barley
In his arms she fell as her hair came down
Among the fields of gold
Will you stay with me will you be my love
Among the fields of barley
And you can tell the sun in his jealous sky
When we walked in fields of gold
I never made promises lightly
And there have been some that I've broken
But I swear in the days still left
We will walk in fields of gold
We'll walk in fields of gold
[G]I never made [A]promises [D]lightly
[G]And there have been [A]some that I've [D]broken
[G]But I swear in the [A]days still l[Bm]eft
We will [G]walk in [A]fields of [Bm]gold
[G]We'll walk in [A]fields of [D]gold
(Same as verse 1)
Many years have passed since those summer days
Among the fields of barley
See the children run as the sun goes down
As you lie in fields of gold
[Bm]You'll remember me when the [G]west wind moves
Among the [A]fields of [D]barley
[Bm]You can tell the sun in his [G]jealous sky
[Em]When we walked in [A]fields of [D]gold
[G]When we walked in [A]fields of [Bm]gold
[G]When we walked in [A]fields of [D]gold
[Bm]Oooo[Bm] [G] [G]
 
 |----------------|----------------|----------------|----------------|
 |-3--------------|-3--------------|-0-----------0--|-------------0--|
 |---------4------|---------4------|---------2------|---------2------|
 |-----4-------4--|-----4-------4--|-----0----------|-----0----------|
 |-2--------------|-0--------------|----------------|----------------|
 |----------------|----------------|-3--------------|-3--------------|

[D] [D] [D] [D]  
 
 |----------------|-2h3-----0------|----2-----------|----------------|
 |---------3------|-----3----------|---3------------|----------------|
 |-----2-------2--|-------------2--|--2-------------|----------------|
 |-0--------------|----------------|-0--------------|----------------|
 |----------------|----------------|----------------|----------------|
 |----------------|----------------|----------------|----------------|

Good Luck! / Vicky

Important: The song above is NOT stored on the Chordie server. The original song is hosted at www.guitaretab.com. Chordie works as a search engine and provides on-the-fly formatting. Chordie does not index songs against artists'/composers' will. To remove this song please click here.

Text color:
Chord color:
Chord grids: 
Font size:    
Page size: 

A Bm D Em G
Rate #1 of 8 versions

Login - add to songbook

SHARE PAGE  



You need to log in to post comments