Guitar Tabs, Chords and Lyrics
Login is temporarily disabled for some users. Do not panic. Will be back in an hour or two. DO NOT REREGISTER!!


Say Goodbye  Eva Cassidy

Intro:
[Dm] [C] [G] [F]  
 
 -1-------0----------------------------------1------1---1------|
 -3-------1----------------1-----------------1--1---1---1--1---|
 -2---x---0--------0-------0-----------------2--2---2---2--2---|
 -0---x---2---2---0h2---2------5--5--x---3------3---3------3---|
 ---------3---3---------3------5--5--x---3----------3----------|
 ------------------------------3--3--x---1----------1----------|

[Dm] [C] [G] [F]  
 
 -1---1--1--x---0---0--0---0---0--0------------------------1--1------|
 -3---3--2--x---1---1--1---1---1--1--------------------1---1--1--1---|
 -2---2--3--x---0---0--0---0---0--0--------------------2---2--2--2---|
 -0---0--0--x---2---2--2--0h2---------5--5--5--x---3---3---3-----3---|
 ---------------3---3--3---3----------5--5--5--x---3-------3---------|
 -------------------------------------3--3--3--x---1-------1---------|

[Dm]Funny how the [C]distance can [G]make you feel [F]close
[Dm]And the things you [C]lost are the [G]things you want [F]most
[Dm]The weather's [C]fine here a p[G]erfect shade of b[F]lue
[Dm]I guess that's [C]why I've been [G]thinking of [F]you
So I [F]called you [G]up just to [C]tell you [Dm]why
[F]Why I [G]left you and [F]said goodbye[C]
[C]Oooh oooh [Am]oooh m[F]ust be the m[G]ood I'm in
[C]I I I [Am]I'm [F]thinking of [G]you again
[F]I called you [G]up just to [C]tell you [Dm]why
[F]Why I [G]left you and [F]said good[C]bye
I know you're different now and I guess I've changed too
And I thought what once was right was so wrong for you
Yesterday I was talking and I heard your name
The weather's fine here with a slight chance of rain
So I called you up just to tell you why
Why I left you and said goodbye
Ooooh must be the mood I'm in
I'm thinking of you again
I called you up just to tell you why
Why I left you and said goodbye
Do do [C]doo doo [G]doo do do [F]doo doo doo [C]doo doo
Do [Dm]dooo do [C]do oh oh-wo[Dm]ah-oh woah-oh[C]
Do do [C]doo doo [G]doo do do d[F]oo doo doo d[C]oo doo
Do [Dm]dooo do [C]do oh oh-wo[Dm]ah-oh woah-oh[C]
Time makes you sorry for the things that you've done
Sometimes you walk away and sometimes you run
And the weather's fine here I can feel a slight chill
Something's change and some never will
So I called you up just to tell you why
Why I left you and said goodbye
Oooh, must be the mood I'm in
I'm thinking of you again
I called you up just to tell you why
Why I left you and said goodbye
I called you up to tell you why
To say I love you and to say goodbye
Ending:
 
 ----------------0---|
 ----------------1---|
 -------0---0----0---|
 ----2------0---0h2--|
 -3--------------3---|
 --------------------|


Important: The song above is NOT stored on the Chordie server. The original song is hosted at www.guitaretab.com. Chordie works as a search engine and provides on-the-fly formatting. Chordie does not index songs against artists'/composers' will. To remove this song please click here.

Text color:
Chord color:
Chord grids: 
Font size:    
Page size: 

Am C Dm F G
Rate #1 of 3 versions

Jango Player

Login - add to songbook

SHARE PAGE  




You need to log in to post comments