Guitar Tabs, Chords and Lyrics
Major upgrade!! After one year development the new version of Chordie is now online! Please give feedback.


Your Star  Evanescence

 
 -------------------------------------------------------------------------------

Your Star-Evanescence
 
 -------------------------------------------------------------------------------

Tabbed by:eternal_whisper
Tuning:Drop D
*r is for rest
-is 8th note
--is 4th note
no gap betwenn the notes 16th note
Chords Used:
Dsus2:XX0230
D5:XX0231
Dm7:XX0211
G/D:XXX003
D5:XX023X
C:X3201X
A5:X022XX
A:X0222X
A7:X0212X
Gm:555786
E:222100
E7:222424
E5:222XXX
F5:333XXX
Intro:
[Dsus2] [Dm] [Dsus2] [Dm7] [G/D]  
 
 e|0--^---|------1-----|------0-----|------1--------|---------3-----|
 B|3--|---|----3-------|----3-------|----1--------0-|(0)----0-------|
 G|2--|---|--2---------|--2---------|--2--------0---|-----0---------|
 D|0--|---|0-----------|0-----------|0--------0-----|---0-----------|
 A|-------|------------|------------|---------------|---------------|
 D|-------|------------|------------|---------------|---------------|

[Dm] [Dsus2] [Dm7] [D5]  
 
 e|------1-----|------0-----|------1-------|--------5-----|
 B|----3-------|----3-------|----1-------3-|----3---------|
 G|--2---------|--2---------|--2-------0---|--0---0-------|
 D|0-----------|0-----------|0-------0-----|0-------------|
 A|------------|------------|--------------|--------------|
 D|------------|------------|--------------|--------------|

[Dm]I can't see your[Dsus2] star[Dm7] [G/D]
[Dm]I can't see your[Dsus2] star[Dm7] [D5]
Though I [C]patiently waited[A5] bedside for the [Dsus2]death of today
[Dm]I can't see your[Dsus2] star[Dm7] [D5]
The mec[C]hanical lights of Li[A5]sbon fri[Dm]ghtened it away[A]
Chorus:
And I'm a[Dm]lone now[A7]
me and [Dm]all I stood for[Gm]
we're wandering[Dm] now
all in [A7]parts and pieces, swim lon[Dm]ely
find your own[A7] way out
[D5]  
 
 e|----------------|
 B|----------------|
 G|----------------|
 D|----------------|
 A|0--r--------r-0-|
 D|0?-r---0000-r-0-| Continue rhythm simile

[D5]I can't see your star
I can't see your star
[C5]how can the dar[A5]kness feel[D5] so wrong?
Chorus:
And I'm a[Dm]lone now[A7]
me and [Dm]all I stood for[Gm]
we're wandering[Dm] now
all in [A7]parts and pieces, swim lon[Dm]ely
find your own[A7] way out
Bridge:
[Am] [E7]  
[Am]So far away[E]
[Am]it's growing co[E7]lder [Am]without your love[E]
[Am]why can't you feel[E7] me [Am]calling your name?[E]
[Am]Can't break the si[E7]lence
it's [Am]breaking me[E]
[E5]All my [F5]fea[E5]rs [F5] [E5]
F5 *E5
turn to rage
*E5
 
 e|----------------|
 B|----------------|
 G|----------------|
 D|--------2-------|
 A|--2222----5-3-2-|

D|02222202-2-2-2-5|
 
 e|----------------|----------------|--------------|---------|
 B|----------------|----------------|--------------|---------|
 G|----------------|----------------|--------------|---------|
 D|--2---2---2---2-|--2---2---2---2-|3-----------3-|2--------|
 A|00-022-233-355-3|00-022-233-355-3|--------------|---------|
 D|----------------|----------------|----3-3-3-3---|---------|

And I'm al[Am]one now hey[E7]
nothing [Am]worth fighting for[Dm]
we're wanderin[Am]g now
all in [E7]parts and pieces, swim lo[Am]nely
find your own[E] way out
[Am] [E7] [Am] [Dm]  
[Am] [E7] [Am] [E]  

Important: The song above is NOT stored on the Chordie server. The original song is hosted at www.guitaretab.com. Chordie works as a search engine and provides on-the-fly formatting. Chordie does not index songs against artists'/composers' will. To remove this song please click here.

Text color:
Chord color:
Chord grids: 
Font size:    
Page size: 

A A5 A7 Am C C5 D5 Dm Dm7 Dsus2 E E5 E7 F5 G/D Gm
Rate #1 of 6 versions

Jango Player

Login - add to songbook

SHARE PAGE  




You need to log in to post comments