Guitar Tabs, Chords and Lyrics
Major upgrade!! After one year development the new version of Chordie is now online! Please give feedback.


I Will Buy You a New Life   Everclear

 
 e|-------------
 B|-------------
 G|-4-4-4-x-4-4-
 D|-5-5-5-x-5-5-
 A|-5-5-5-x-5-5-
 E|-3-3-3-x-3-3-

 


 


 Figure Two: This is the part of the tab that he couldn't figure out. I


 tried to show the struming pattern. Listen to the song.


 


 

 
 e|-----3-------3-3------------
 B|-----3-------3-3------------
 G|-----0-------0-0------------
 D|----------------------------
 A|-2-2---2-2-2----------------
 E|-3-3---3-3-3----------------

 


 [d] [d] [d] [u] [d] [u] [d] [u]  


 Every once in a while the pattern changes and the only diference is that


 


 figure two starts off like so:


 

 
 e|--------3-------3-3------------
 B|--------3-------3-3------------
 G|--------0-------0-0------------
 D|-------------------------------
 A|0-0-2-2---2-2-2----------------
 E|0-0-3-3---3-3-3----------------


Important: The song above is NOT stored on the Chordie server. The original song is hosted at www.guitaretab.com. Chordie works as a search engine and provides on-the-fly formatting. Chordie does not index songs against artists'/composers' will. To remove this song please click here.

This song is displayed as text-only. Transposing and tuning is only available for chordpro-songs.
Rate #5 of 14 versions

Login - add to songbook

SHARE PAGE  




You need to log in to post comments