Guitar Tabs, Chords and Lyrics
Update 25:10. 13:00. Site is back up running again. Songbooks are recovered. Woring on getting search back up..


Blacklist  Exodus

1) Intro riff
E E Q Q E E Q Q E E E E E E
 
 ||----------------------|-----------------------|-------------------------|
 A||----------------------|-----------------------|-------------------------|
 F||----------------------|-----------------------|-------------------------|
 C||----------------0--3--|-------2----0--3-------|--2----0--3-----2--0--3--|
 G||----------------------|-----------------------|-------------------------|
 D||----------------------|--0---------------0----|-------------0-----------|

2) Riff 2
Q E E E E E E E E E E E E E E E E E E E E
 
 ------------------|--------------------------|--------------------------|
 ------------------|--------------------------|--------------------------|
 ------------------|--------------------------|--------------------------|
 -3----------------|--------------------0--3--|--2-----------------------|
 -1----1--1--1--1--|--1--1--1--1--1--1--0--3--|--2-----------------------|
 ------------------|--------------------------|-----0--0--0--0--0--0--0--|

PM PM PM PM PM PM PM PM PM PM PM PM PM PM
E E E E Q E E E E E E E E E E E E E E E E
 
 -------------------------|--------------------------|-------------------|
 -------------------------|--------------------------|-------------------|
 -------------------------|--------------------------|-------------------|
 --0--3--2-----3----0--3--|--2-----------------------|-------------------|
 --0--3--2-----1----0--3--|--2-----------------------|-------------------|
 -----------0-------------|-----0--0--0--0--0--0--0--|--0--0--0--0--0--0-|

Riff 2a
PM PM PM PM PM
E E E E E E E E E E E E E E E Q E E
 
 -------------------------------|-------------------------|
 -------------------------------|-------------------------|
 -------------------------------|-------------------------|
 -0--3--2-----------0--3--2-----|--0--3--2-----3----0--3--|
 -0--3--2-----------0--3--2-----|--0--3--2-----1----0--3--|
 ----------0--0--0-----------0--|-----------0-------------|

PM PM PM PM PM PM PM PM PM PM PM PM PM
[E] [E] [E] [E] [E] [E] [E] [E] [E] [E] [E] [E] [E] [E]  
 
 --------------------------|--------------------|
 --------------------------|--------------------|
 --------------------------|--------------------|
 --2-----------------------|--------------------|
 --2-----------------------|--------------------|
 -----0--0--0--0--0--0--0--|--0--0--0--0--0--0--|

3) Verse
PM PM PM PM PM PM PM PM PM PM PM PM PM
[E] [E] [E] [E] [E] [E] [E] [E] [E] [E] [E] [E] [E] [E] [E] [E] [E] [E]  
 
 -------|--------------------------|--------------------------|
 -------|--------------------------|--------------------------|
 -------|--------------------------|--------------------------|
 -0--3--|--2-----------------------|--------------------0--3--|
 -0--3--|--2-----------------------|--------------------0--3--|
 -------|-----0--0--0--0--0--0--0--|--0--0--0--0--0--0--------|

PM PM PM PM PM PM PM PM PM PM PM
E E E E E E E E E E E E Q
 
 --------------------------|-----------------|
 --------------------------|-----------------|
 --------------------------|-----------------|
 --2-----------------------|--------------3--|
 --2-----------------------|--------------1--|
 -----0--0--0--0--0--0--0--|--0--0--0--0-----|

4) Pre?verse
PM PM PM PM PM PM
E E E H Q E Q. E Q E H Q. Q E E E E E E E
 
 --------|-----------------|--------------------------------|-------------------------??|
 --------|-----------------|--------------------------------|-------------------------??|
 --------|-----------------|--------------------------------|-------------------------??|
 --0--3--|--2--------------|--------------------------------|--3----3-----------------??|
 --0--3--|--2--------------|-------------------2------------|--1----1--1--1--1--1-?1-?1-|
 --------|-----------------|---------0--13\----0------------|-------------------------??|

5) Chorus
PM PM
E E Q Q E E Q Q E E E E E E Q Q E
 
 ----------------------|------------------------|------------------------|
 ----------------------|------------------------|------------------------|
 ----------------------|------------------------|------------------------|
 ---0--3--2----2----0--|--3--2----5----5--2-----|-----0--3--2----3----0--|
 ---0--3--2----2----0--|--3--2----5----5--2-----|-----0--3--2----1----0--|
 ----------------------|----------3----3-----0--|--0---------------------|

PM PM PM PM
E E E Q E E E E
 
 ----------------------------|
 ----------------------------|
 ----------------------------|
 --3--2--2--2----------------|
 --3--2--2--2----------------|
 ----------------0--0--0--0--|

6) Solo 1 rhythm
PM PM PM PM PM PM PM PM
E E E E E E E E E E E E E E Q E
 
 ----------------------------|-------------------------|
 ----------------------------|-------------------------|
 ----------------------------|-------------------------|
 -0--3--2--------------------|-----0--3--2-----3----0--|
 -0--3--2--------------------|-----0--3--2-----1----0--|
 ----------0--0--0--0--0--0--|--0-----------0----------|

PM PM PM PM PM PM PM PM
E E E E E E E E E E E E E Q
 
 --------------------------------------------|
 --------------------------------------------|
 --------------------------------------------|
 --3--2-----------------------0--3--2-----1--|
 --3--2-----------------------0--3--2-----1--|
 --------0--0--0--0--0--0--0-----------0-----|

7) Solo 2 rhythm
PM PM PM PM PM PM PM PM
E E E E E E E E E E E E E E Q
 
 --------------------------|-------------------------|
 --------------------------|-------------------------|
 --------------------------|-------------------------|
 --2--5--4-----------------|--------2--5--4-----5----|
 --2--5--4-----------------|--------2--5--4-----3----|
 -----------2--2--2--2--2--|--2--2-----------2-------|

PM PM PM PM PM PM PM PM
E E E E E E E E E E E E E E Q
 
 --------------------------|-------------------------|
 --------------------------|-------------------------|
 --------------------------|-------------------------|
 --2--5--4-----------------|--------2--5--4-----3----|
 --2--5--4-----------------|--------2--5--4-----3----|
 -----------2--2--2--2--2--|--2--2-----------2-------|

8) Post solo (two guitars)
Guitar 1:
E E H. H E E E E
 
 ---------------------|-----------------------|
 ---------------------|-----------------------|
 ---------------------|-----------------------|
 --0--3--2------------|--L--------0--3--2-----|
 --0--3--2------------|--L--------0--3--2-----|
 ---------------------|-----------------------|

PM PM PM
E E H. H E E E E
 
 ---------------------|-----------------------|
 ---------------------|-----------------------|
 ---------------------|-----------------------|
 --0--3--2------------|--L--------3-----------|
 --0--3--2------------|--L--------1--1--1--1--|
 ---------------------|-----------------------|

Guitar 2:
E E E E E. S E E E E E. S E E E E
 
 |--------------------------|--------------------------|
 |--------------------------|--------------------------|
 |--------------------------|--------------------------|
 |--0--3--2-----2-----0--3--|--2-----2-----0--3--2-----|
 |--0--3--2-----2-----0--3--|--2-----2-----0--3--2-----|
 |--------------------------|--------------------------|

PM PM PM
E E E E E. S E E E E E. S E E E E
 
 --------------------------|--------------------------|
 --------------------------|--------------------------|
 --------------------------|--------------------------|
 --0--3--2-----2-----0--3--|--2-----2-----3-----------|
 --0--3--2-----2-----0--3--|--2-----2-----1--1--1--1--|
 --------------------------|--------------------------|

9) Ending
Guitar 1 plays solo rhythm 1
Guitar 2:
PM PM PM PM
[E] [E] [E] [E] [E] [E] [E] [E] [E] [E] [E] [E] [E] [E] [E] [E]  
 
 -------|--------------------------|--------------------|
 -------|--------------------------|--------------------|
 -------|--------------------------|--------------------|
 -0--3--|--2-----2-----0--3--2-----|--2-----0--3--0--2--|
 -------|--------------------------|--------------------|
 -------|-----0-----0-----------0--|-----0--------------|

Solo 1 (Holt)
\1/ \1/ \1/
E H Q E Q Q E E Q H Q Q
 
 |---------------------/22--|--L----22----L--L--12g22----|--L--------L----22----|
 |--------------------------|----------------------------|----------------------|
 |--------------------------|----------------------------|----------------------|
 |--------------------------|----------------------------|----------------------|
 |--------------------------|----------------------------|----------------------|
 |--------------------------|----------------------------|----------------------|

\1/ \1/ \1/ \1/ \1/ \1/ W
S E. E. E. E. E. Q Q Q. E
 
 --L--22-----22----22---22---22---|--22----12----L----------|
 ----(22)---(22)---20---20--------|--------12----L------13--|
 ---------------------------------|-------------------------|
 ---------------------------------|-------------------------|
 ---------------------------------|-------------------------|
 ---------------------------------|-------------------------|

S S S S S S S S S S S S E S S
 
 -----12-15p-12----12-16p-12-15p-12----12--xg12--15p-12-|
 --15-----------15------------------15------------------|
 -------------------------------------------------------|
 -------------------------------------------------------|
 -------------------------------------------------------|
 -------------------------------------------------------|

W
 
 |---3---| 

S S S S S S S S S S S S E E S
 
 -----12-16p-12-15p-12-12------------------------------|
 --15---------------------15-13h-15p-13-12-8g10b--L--L-|
 ------------------------------------------------------|
 ------------------------------------------------------|
 ------------------------------------------------------|
 ------------------------------------------------------|

|--3--|
E T T S S S T T S S S S T T S S
 
 ---------------------------------------------------10-
 ------10h-11-11-12-11-10h-11-12-11-12-11-10h-11-12----
 --12--------------------------------------------------
 ------------------------------------------------------
 ------------------------------------------------------
 ------------------------------------------------------
 |--3--| |--3--| |--3--| 

S T T S S S S S S S S S S H E
 
 ----------------10---------------------------------17b--|
 12-10h-11-12-12----12-11-12-11-10-----------------------|
 ----------------------------------12-10-7g9-------------|
 --------------------------------------------------------|
 --------------------------------------------------------|
 --------------------------------------------------------|

S S S S S S S S S S S S S S S. T
 
 --17b-17b-17b-17b-17b-17b-17b-17b-17b-17b-17b-17b-17b-17b-17b---|
 ----------------------------------------------------------------|
 ----------------------------------------------------------------|
 ----------------------------------------------------------------|
 ----------------------------------------------------------------|
 ----------------------------------------------------------------|

S S. S. S. S. E Q S S S
 
 ----17b----17b----17b--L~----L-18p-0-|
 -------------------------------------|
 -------------------------------------|
 -------------------------------------|
 -------------------------------------|
 -------------------------------------|

S S S S S S S S S S S S S S S S
 
 --12p-0-18p-0-17p-0-12p-0-18p-0-17p-0-12p-0-18p-0-|
 --------------------------------------------------|
 --------------------------------------------------|
 --------------------------------------------------|
 --------------------------------------------------|
 --------------------------------------------------|

W
S S S S S S S S S S Q.
 
 --17p-0-12p-0-18p-0-17p-0-12p-0-12------|
 ----------------------------------------|
 ----------------------------------------|
 ----------------------------------------|
 ----------------------------------------|
 ----------------------------------------|
 |-----5-----| |-----5-----| |-----6-----| |------6-----| 

S S S S S S S S S S S S S S S S S S E S S
 
 ------------------------------------------------------------------|
 ------------------------------------------------------------12-13-|
 -----------------------------12-11-12-14-12-11----11-12-14--------|
 -----------12-------12-14-15-------------------14-----------------|
 -----12-14----14-15-----------------------------------------------|
 --15--------------------------------------------------------------|
 3 3 3 |---------6--------| |--3--| 

T T S T T S T T S S S S S S S S S S S T T S S S
 
 ----------------------------------------------12h-13h-15-15-12-12-12----------|
 --12-12-13-12-12-15-12-12-13-12-12-12h-13h-15---------------------------12-13-|
 ---------------------------------------------------------------------14-------|
 ------------------------------------------------------------------------------|
 ------------------------------------------------------------------------------|
 ------------------------------------------------------------------------------|

W
S S Q Q E Q
 
 -----12-22b----L--------------|
 --15--------------------------|
 ------------------------------|
 ------------------------------|
 ------------------------------|
 --------------------0--13\----|

Solo 2 (Hunolt)
Q. Q. Q
 
 |--12b------12b------12b----|
 |---------------------------|
 |---------------------------|
 |---------------------------|
 |---------------------------|
 |---------------------------|

SH
E Q. H Q S S S S Q S S S S
 
 --L--12b------12b--------|--12b----9p-8-9p-8-8b----------------|
 ---------------------------|-------------------------7g10-7-12-x-|
 ---------------------------|-------------------------------------|
 ---------------------------|-------------------------------------|
 ---------------------------|-------------------------------------|
 ---------------------------|-------------------------------------|

|---3--|
S S Q Q Q E H Q. S S S
 
 --------------------(2)----/19--|--L--------19b----------------|
 --10-7-10b----L~----------------|--------------------22-19h-22-|
 --------------------------------|------------------------------|
 --------------------------------|------------------------------|
 --------------------------------|------------------------------|
 --------------------------------|------------------------------|
 |---3--| |---3--| |---3--| 

E S S S E S S S E S S S S S E
 
 --19b------------19b------------19b------------19-17-22b--|
 -------22-19h-22------22-19h-22------22-19h-22------------|
 ----------------------------------------------------------|
 ----------------------------------------------------------|
 ----------------------------------------------------------|
 ----------------------------------------------------------|
 |---3---| 

H Q Q E E E E S S S E. E E
 
 ---L--------22b----L----|--21--20--19--17--14--xg17-19-14\---L-----|
 ------------------------|------------------------------------------|
 ------------------------|------------------------------------------|
 ------------------------|------------------------------------------|
 ------------------------|------------------------------------------|
 ------------------------|------------------------------------------|

E S S S S S S E S S S S S S
 
 --------------21--------20-----19----19----19----|
 --/17--19p-17----19p-17----19-----19----19----19-|
 -------------------------------------------------|
 -------------------------------------------------|
 -------------------------------------------------|
 -------------------------------------------------|

E S S S S S S S S S S S E.
 
 -------------21--------20--------19----19------|
 --17--19p-17----19p-17----19p-17----19----19---|
 -----------------------------------------------|
 -----------------------------------------------|
 -----------------------------------------------|
 -----------------------------------------------|
 |--3-| |--3-| 

S S S S S S S S S S S S S S S S S S
 
 -----------------------------------7-------|
 ----------------7-8---7-8---7-8-10---10-10-|
 --------------7-----9-----9----------------|
 -------7-9-10------------------------------|
 --9-10-------------------------------------|
 -------------------------------------------|

|--3--|
S S S S S S S S S S S S S S S S S
 
 --7-9------7-9-9-7-9-9-10-10-14----12-15-12-14-|
 ------9g10----------------------14-------------|
 -----------------------------------------------|
 -----------------------------------------------|
 -----------------------------------------------|
 -----------------------------------------------|

W W
Q. E Q Q Q. E Q S S S S
 
 --24b------24b--L~------------|--12b------12b--L~----12--x--x--x-|
 ------------------------------|----------------------------------|
 ------------------------------|----------------------------------|
 ------------------------------|----------------------------------|
 ------------------------------|----------------------------------|
 ----------------------(7)\----|----------------------------------|

H Q E E
 
 --17b--------17b~----16--16b--|
 ------------------------------|
 ------------------------------|
 ------------------------------|
 ------------------------------|
 ------------------------------|

S S S S S S S S S E S S S E
 
 --L-16-14----14-12------------------------------|
 ----------14-------14-12-12-14b--10-12-10-12br--|
 ------------------------------------------------|
 ------------------------------------------------|
 ------------------------------------------------|
 ------------------------------------------------|

Duration Legend
 
 ---------------

W - whole
H - half
Q - quarter
E - 8th
S - 16th
T - 32nd
X - 64th
. - note dotted
|-n-| - n-tuplets
Tablature Legend
 
 ----------------

L - tied note
x - dead note
g - grace note
(n) - ghost note
> - accentuded note
NH - natural harmonic
AH - artificial harmonic
TH - tapped harmonic
SH - semi harmonic
PH - pitch harmonic
h - hammer on
p - pull off
b - bend
br - bendRelease
pb - preBend
pbr - preBendRelease
brb - bendReleaseBend
\n/ - tremolo bar dip
\n - tremolo bar dive
-/n - tremolo bar Release up
/n\ - tremolo bar inverted dip
/n - tremolo bar return
-\n - tremolo bar Release down
S - shift slide
s - legato slide
/ - slide into from below or out of upwards
\ - slide into from above or out of downwards
~ - vibrato
W - wide vibrato
tr - trill
TP - tremolo picking
T - tapping
S - slap
P - pop
< - fade in
^ - brush up
v - brush down
The End. Rate it plzzz...

Important: The song above is NOT stored on the Chordie server. The original song is hosted at www.guitaretab.com. Chordie works as a search engine and provides on-the-fly formatting. Chordie does not index songs against artists'/composers' will. To remove this song please click here.

Text color:
Chord color:
Chord grids: 
Font size:    
Page size: 

E
Rate #1 of 2 versions

Jango Player

Login - add to songbook

SHARE PAGE  



You need to log in to post comments