Guitar Tabs, Chords and Lyrics
Server problems seems to be fixed. Chordie has been experiencing problems with songs disappearing. These issues now seems to be fixed, but still verifying the fix. If you find anything strange, please email admin@chordie.com.


Silence  Fades Away

 
 -------------------------------------------------------------------------------

Silence - Fades Away
 
 -------------------------------------------------------------------------------

Tabbed by: Zaith
Tuning: Drop C (C G C F A D)
Intro (x2)
 
 d|---------13--12--10--15--13-----10/12-|---------13--12-----------8--8/10-12p10-|
 A|--------------------------------------|----------------------------------------|
 F|-14-14-14--14--14--14--14--14-14------|-14-14-14--14--14-12-12-12-12-----------|
 C|--------------------------------------|----------------------------------------|
 G|--------------------------------------|----------------------------------------|
 C|--------------------------------------|----------------------------------------|

Verse (Guitar 1) (x4)
 
 d|---------13--12--10--15--13-----10/12-|---------13--12-----------8--8/10-12p10-|
 A|--------------------------------------|----------------------------------------|
 F|-14-14-14--14--14--14--14--14-14------|-14-14-14--14--14-12-12-12-12-----------|
 C|--------------------------------------|----------------------------------------|
 G|--------------------------------------|----------------------------------------|
 C|--------------------------------------|----------------------------------------|

(Guitar 2) (x4)
 
 d|--------------------------------------|----------------------------------------|
 A|--------------------------------------|----------------------------------------|
 F|--------------------------------------|----------------------------------------|
 C|-0-0-0-0-0-0~~-----0-0-0-0-0-0--------|-0-0-0-0-0-0~~------5-5-5-5~~~~~~~~~----|
 G|-0-0-0-0-0-0~~-----0-0-0-0-0-0--------|-0-0-0-0-0-0~~------5-5-5-5~~~~~~~~~----|
 C|-0-0-0-0-0-0~~-----0-0-0-0-0-0--------|-0-0-0-0-0-0~~------5-5-5-5~~~~~~~~~----|

* * * * * * * * * * * * *
Pre-Chorus
 
 d|----------------------------------|--------------------------------------------|
 A|----------------------------------|--------------------------------------------|
 F|----------------------------------|--------------------------------------------|
 C|-0-0-0-0-0-0-3-3-3-3-3-3-3-3-3-3--|--5-5-5-5-5-5-10-10-10-10-10-10-10-10-10-10-|
 G|-0-0-0-0-0-0-3-3-3-3-3-3-3-3-3-3--|--5-5-5-5-5-5-10-10-10-10-10-10-10-10-10-10-|
 C|-0-0-0-0-0-0-3-3-3-3-3-3-3-3-3-3--|--5-5-5-5-5-5-10-10-10-10-10-10-10-10-10-10-|

PM:=============================== =========================================
 
 d|----------------------------------|-----------------------------------------|
 A|----------------------------------|-----------------------------------------|
 F|----------------------------------|-----------------------------------------|
 C|-0-0-0-0-0-0----3-3-3---3-3-3-----|---5-5-5---5-5-5-----10-10~~~~-----------|
 G|-0-0-0-0-0-0----3-3-3---3-3-3-----|---5-5-5---5-5-5-----10-10~~~~-----------|
 C|-0-0-0-0-0-0----3-3-3---3-3-3-----|---5-5-5---5-5-5-----10-10~~~~-----------|

PM:=====
Chorus (x2)
 
 d|----------------------------------|-----------------------------------------|
 A|----------------------------------|-----------------------------------------|
 F|----------------------------------|-----------------------------------------|
 C|-0~~~xx-x--0-0~~~-3~~~xx-x--3-3~~~|-10~~~xx-x--10-10~~~-8~~~xx-x--8-8~~~----|
 G|-0~~~xx-x--0-0~~~-3~~~xx-x--3-3~~~|-10~~~xx-x--10-10~~~-8~~~xx-x--8-8~~~----|
 C|-0~~~xx-x--0-0~~~-3~~~xx-x--3-3~~~|-10~~~xx-x--10-10~~~-8~~~xx-x--8-8~~~----|

Post Chorus (x1)
 
 d|---------13--12--10--15--13-----10/12-|---------13--12-----------8--8/10-12p10-|
 A|--------------------------------------|----------------------------------------|
 F|-14-14-14--14--14--14--14--14-14------|-14-14-14--14--14-12-12-12-12-----------|
 C|--------------------------------------|----------------------------------------|
 G|--------------------------------------|----------------------------------------|
 C|--------------------------------------|----------------------------------------|

Verse 2 (Guitar 1) (x4)
 
 d|---------13--12--10--15--13-----10/12-|---------13--12-----------8--8/10-12p10-|
 A|--------------------------------------|----------------------------------------|
 F|-14-14-14--14--14--14--14--14-14------|-14-14-14--14--14-12-12-12-12-----------|
 C|--------------------------------------|----------------------------------------|
 G|--------------------------------------|----------------------------------------|
 C|--------------------------------------|----------------------------------------|

(Guitar 2) (x4)
 
 d|--------------------------------------|----------------------------------------|
 A|--------------------------------------|----------------------------------------|
 F|--------------------------------------|----------------------------------------|
 C|-0-0-0-0-0-0~~-----0-0-0-0-0-0--------|-0-0-0-0-0-0~~------5-5-5-5~~~~~~~~~----|
 G|-0-0-0-0-0-0~~-----0-0-0-0-0-0--------|-0-0-0-0-0-0~~------5-5-5-5~~~~~~~~~----|
 C|-0-0-0-0-0-0~~-----0-0-0-0-0-0--------|-0-0-0-0-0-0~~------5-5-5-5~~~~~~~~~----|

* * * * * * * * * * * * *
Pre-Chorus
 
 d|----------------------------------|--------------------------------------------|
 A|----------------------------------|--------------------------------------------|
 F|----------------------------------|--------------------------------------------|
 C|-0-0-0-0-0-0-3-3-3-3-3-3-3-3-3-3--|--5-5-5-5-5-5-10-10-10-10-10-10-10-10-10-10-|
 G|-0-0-0-0-0-0-3-3-3-3-3-3-3-3-3-3--|--5-5-5-5-5-5-10-10-10-10-10-10-10-10-10-10-|
 C|-0-0-0-0-0-0-3-3-3-3-3-3-3-3-3-3--|--5-5-5-5-5-5-10-10-10-10-10-10-10-10-10-10-|

PM:=============================== =========================================
 
 d|----------------------------------|-----------------------------------------|
 A|----------------------------------|-----------------------------------------|
 F|----------------------------------|-----------------------------------------|
 C|-0-0-0-0-0-0----3-3-3---3-3-3-----|---5-5-5---5-5-5-----10-10~~~~-----------|
 G|-0-0-0-0-0-0----3-3-3---3-3-3-----|---5-5-5---5-5-5-----10-10~~~~-----------|
 C|-0-0-0-0-0-0----3-3-3---3-3-3-----|---5-5-5---5-5-5-----10-10~~~~-----------|

PM:=====
Chorus 2 (x2)
 
 d|----------------------------------|-----------------------------------------|
 A|----------------------------------|-----------------------------------------|
 F|----------------------------------|-----------------------------------------|
 C|-0~~~xx-x--0-0~~~-3~~~xx-x--3-3~~~|-10~~~xx-x--10-10~~~-8~~~xx-x--8-8~~~----|
 G|-0~~~xx-x--0-0~~~-3~~~xx-x--3-3~~~|-10~~~xx-x--10-10~~~-8~~~xx-x--8-8~~~----|
 C|-0~~~xx-x--0-0~~~-3~~~xx-x--3-3~~~|-10~~~xx-x--10-10~~~-8~~~xx-x--8-8~~~----|

Bridge
 
 d|---------------------------------------|---------------------------------------|
 A|---------------------------------------|---------------------------------------|
 F|---------------------------------------|---------------------------------------|
 C|-7-7-7-7-7-7-7-7----8-8-8-8-8-8-8-8----|-7-7-7-7-7-7-7-7----5-5-5-5-5-5-5-5----|
 G|-7-7-7-7-7-7-7-7(x2)8-8-8-8-8-8-8-8(x2)|-7-7-7-7-7-7-7-7(x2)5-5-5-5-5-5-5-5(x2)|
 C|-7-7-7-7-7-7-7-7----8-8-8-8-8-8-8-8----|-7-7-7-7-7-7-7-7----5-5-5-5-5-5-5-5----|

PM:=============== =============== =============== ===============
 
 d|---------------------------------------|---------------------------------------|
 A|---------------------------------------|---------------------------------------|
 F|---------------------------------------|---------------------------------------|
 C|-7-7-7-7-7-7-7-7----8-8-8-8-8-8-8-8----|-3-3-3-3-3-3-3-3----7-7-7-7-7-7-7-7----|
 G|-7-7-7-7-7-7-7-7(x2)8-8-8-8-8-8-8-8(x2)|-3-3-3-3-3-3-3-3(x2)7-7-7-7-7-7-7-7(x2)|
 C|-7-7-7-7-7-7-7-7----8-8-8-8-8-8-8-8----|-3-3-3-3-3-3-3-3----7-7-7-7-7-7-7-7----|

PM:=============== ===============
(Acoustic progression played in D tuning (Raise low C to D))
 
 d|-5------------------1------------------|-3------------------1------------------|
 A|-6------------------1------------------|-5------------------3------------------|
 F|-7------------------2------------------|-5------------------3------------------|
 C|-7------------------3------------------|-5------------------3------------------|
 G|-5------------------3------------------|-3------------------1------------------|
 D|--------------------1------------------|---------------------------------------|

[Cm] [Eb] [Bb] [Ab] 
Pick slide, then guitar Pauses from 2:48 to 2:55
Final Chorus
 
 d|----------------------------------|-----------------------------------------|
 A|----------------------------------|-----------------------------------------|
 F|----------------------------------|-----------------------------------------|
 C|-0~~~xx-x--0-0~~~-3~~~xx-x--3-3~~~|-10~~~xx-x--10-10~~~-8~~~xx-x--8-8~~~----| (x2)
 G|-0~~~xx-x--0-0~~~-3~~~xx-x--3-3~~~|-10~~~xx-x--10-10~~~-8~~~xx-x--8-8~~~----|
 C|-0~~~xx-x--0-0~~~-3~~~xx-x--3-3~~~|-10~~~xx-x--10-10~~~-8~~~xx-x--8-8~~~----|
 d|----------------------------------|-----------------------------------------|
 A|----------------------------------|-----------------------------------------|
 F|----------------------------------|-----------------------------------------|
 C|--0~~~~~~~~~~~~~--3~~~~~~~~~~~~~--|-10~~~~~~~~~~~~~-----8~~~~~~~~~~~~~------|
 G|--0~~~~~~~~~~~~~--3~~~~~~~~~~~~~--|-10~~~~~~~~~~~~~-----8~~~~~~~~~~~~~------|
 C|--0~~~~~~~~~~~~~--3~~~~~~~~~~~~~--|-10~~~~~~~~~~~~~-----8~~~~~~~~~~~~~------|
 d|----------------------------------|-----------------------------------------|
 A|----------------------------------|-----------------------------------------|
 F|----------------------------------|-----------------------------------------|
 C|-0~~~xx-x--0-0~~~-3~~~xx-x--3-3~~~|-10~~~xx-x--10-10~~~-8~~~xx-x--8-8~~~----|
 G|-0~~~xx-x--0-0~~~-3~~~xx-x--3-3~~~|-10~~~xx-x--10-10~~~-8~~~xx-x--8-8~~~----|
 C|-0~~~xx-x--0-0~~~-3~~~xx-x--3-3~~~|-10~~~xx-x--10-10~~~-8~~~xx-x--8-8~~~----|

Outro
 
 d|---------13--12--10--15--13-----10/12-|---------13--12-----------8--8/10-12p10-|
 A|--------------------------------------|----------------------------------------|
 F|-14-14-14--14--14--14--14--14-14------|-14-14-14--14--14-12-12-12-12-----------|
 C|--------------------------------------|----------------------------------------|
 G|--------------------------------------|----------------------------------------|
 C|--------------------------------------|----------------------------------------|

************************************
| / slide up
| \ slide down
| h hammer-on
| p pull-off
| ~ let it ring
| + harmonic
| x Mute note
| b Bend
************************************

Important: The song above is NOT stored on the Chordie server. The original song is hosted at www.guitaretab.com. Chordie works as a search engine and provides on-the-fly formatting. Chordie does not index songs against artists'/composers' will. To remove this song please click here.

Text color:
Chord color:
Chord grids: 
Font size:    
Page size: 

Ab Bb Cm Eb
Rate #1 of 1 versions

Jango Player

Login - add to songbook

SHARE PAGE  




You need to log in to post comments