Guitar Tabs, Chords and Lyrics
Server problems seems to be fixed. Chordie has been experiencing problems with songs disappearing. These issues now seems to be fixed, but still verifying the fix. If you find anything strange, please email admin@chordie.com.


Viernes de Nuevo  Fakie

Intro:
[A] [F] [G] [E]  
 
 E-----------------------------------|
 B-----------------------------------|
 G-----------------------------------|
 D------------0----------------------|
 A----7---------------5-------2------|
 E--5-----5-1-----1-3-----3-0-----0--|

Luego entra la otra guitarra haciendo esto:
x7
 
 E------------------|------|
 B----------13------|--12--|
 G------12------12--|--11--|
 D--10--------------|--9---|
 A------------------|------|
 E------------------|------|

Cuando empieza la parte rapida se hace esto:
 
 E--------------------|
 B--13----------------|
 G--12----------------|
 D--10----------------|
 A--------------------|
 E--------------------|

|
 
 E--------------------|
 B--------------------|
 G--------------------|
 D--7----3----5----2--|
 A--7----3----5----2--|
 E--5----1----3----0--|

Verso: todo con quintas y Palm mute
La otra guitarra hace la misma nota que antes (Do) pero solo a veces
La Fa Sol Mi La
Viernes de nuevo ya llegué de andar
Fa Sol Mi La
acostado en mi cama te empiezo a llamar
Aquí empieza la otra guitarra haciendo las mismas notas una octava más alto:
Fa Sol Mi La
Que vamos a hacer hoy, nadie entiende nada
Fa Sol Mi
suena el teléfono quien será
Aquí una guitarra hace esto: (donde está el asterisco se hace)
 
 G------------------------------7-----------------7-7-7-9-9-10-12--|
 D-----------------7-7-7-9-9-10----9-9-9-10-10-10------------------|
 A--8-8-8-10-10-10-------------------------------------------------|

Fa(*) Sol
Donde estoy una voz me dice
Do Si Fa (*)
vente acá esta ya me voy hacia allá
Sol Do
agarro mis llaves cierro la puerta
Si Fa
y me pongo a caminar
Fa Sol
Estamos cerca escucho gente hablar
Fa Sol
siento que tú estás acá
Fa Sol Fa
Y donde estarás abro la puerta
Sol
no sé donde estás
Fa Sol
abro los ojos te empiezo a buscar
ya no hay vuelta at[Fa]rás
Sol La
ya no hay vuelta atrás
Coro: Aquí se hacen las notas del principio (La Fa Sol Mi)
y la otra guitarra puros Do
De nuevo juntoa ti
sin saber que pasará
unos metros nos separan
parece una eternidad
solo quiero sentir
tu cara sobre mi
y con un poco de suerte
mi boca en ti
Sigue esto: La otra guitarra Fa y Sol
 
 G------------------------------7-----------------7-7-7-9-9-10-12--|
 D-----------------7-7-7-9-9-10----9-9-9-10-10-10------------------|
 A--8-8-8-10-10-10-------------------------------------------------|

Do Si Fa
Me acerco hacia allá dejando todo atrás
Sol Do
sin darme cuenta de que ya no estás
Si Fa Fa
nunca vas a estar y logro entender
Sol Fa
que nunca uno vamos a ser
Sol Fa
otro camino tomar solo ahora sé
Sol
y logro darme cuenta
Fa Sol
recuerdos vas a ser
Fa Sol
y no importa lo que yo haga
Fa Sol La
porque no volverás
Se repite el coro que termina con las guitarras en un Mi pero una lo
hace una octava más alto
Final: Se hace lo mismo que en la intro

Important: The song above is NOT stored on the Chordie server. The original song is hosted at www.guitaretab.com. Chordie works as a search engine and provides on-the-fly formatting. Chordie does not index songs against artists'/composers' will. To remove this song please click here.

Text color:
Chord color:
Chord grids: 
Font size:    
Page size: 

A E F Fa G
Rate #1 of 2 versions

Login - add to songbook

SHARE PAGE  



You need to log in to post comments