Guitar Tabs, Chords and Lyrics
Server problems seems to be fixed. Chordie has been experiencing problems with songs disappearing. These issues now seems to be fixed, but still verifying the fix. If you find anything strange, please email admin@chordie.com.


Golden  Fall Out Boy

Song: Golden (Acoustic)
Album: Infinity on High
tabbed by: necriononguitar
e-mail (NO SPAM!): tim.rathgen@gmx.de
REAL FANS SUPPORT BANDS BY PURCHASING THEIR CD'S!!!
Tuning: Standard (5-8 cents down to match the link!!)
Capo 1 (chords are relative to the capo!)
= hold note
^ = vibrate
p = pull off
h = hammer on
/ = slide up
\ = slide down
x = mute
Here is a link to a great cover. Unfortunately poor sound quality but its
Pretty much what i tabbed out ☺
http://www.youtube.com/watch?v=ofWb3IPuwH0
READ:
This tab contains the correct chords for ACOUSTIC PLAY, patricks vocals as well as my own
interpretation of the song. So dont attempt to play it on
piano, the chords are very basic since I dont care about names and maj7?s...
Also ::: THIS TAB REQUIRES FINGER-PICKING :::
And dont forget the CAPO!
Enjoy!
If you have any QUESTIONS or REQUESTS, please email me or comment!
Chords:
[Cmaj7] [G] [B7/D#] [E] [Em] [F#/D] [D] [D/B] [B7/D#]  
 
 E------------0---------0---0----------------2--------------------|
 B---0---0----0---4-----0---0---3---3?-(0)---0---7----------------|
 G---0---0----0-o-2-----1---0---2---2---2----2-o-4----------------|
 D---2---0----1-r-1-----2---2---0---0---0----1-r-4----------------|
 A---3---x----2---2-----2---2---0--(0)--2----2---6----------------|
 E-------3--------------0---0---2---------------------------------|

Verse 1 Verse 2
Legend for strumming:
 
 E-------------------------------------------------------|
 B------0--------------0-------0--------0---------------|
 G-----0-------------0---------0--------0---------------|
 D----2------------2--------------------(2)--------------|
 A---3-----------3-------------3--------3---------------|
 E-------------------------------------------------------|

Slow strumm | each picked | hold em | add () if you want to, sound good as well
--> most notes that are kept holding are the chords main notes. Dont worry about it too
much, its mostly for fancy purposes ;)
Intro:
[Cmaj7] [Cmaj7]  
 
 E---------------------------------------------------|
 B---0--0-0-0-0-0-0-0---0--0-0-0-0-0-0-0-----------|
 G---0--0-0-0-0-0-0-0---0--0-0-0-0-0-0-0-----------|
 D?-(2)----------------(2)-------------------------|
 A---3------------------3--------------------------|
 E---------------------------------------------------|

Verse I: Hold all the notes
[Cmaj7] [G]  
 
 E-----------------------------------------------------------|
 B------0------0------------------0------------------------|
 G-----0-----0-----0--------2---------2h4-2-0--------------|
 D----2----2-----------------------------------0------------|
 A---3-----------3---3--------------------------------------|
 E---------------------------3--3---3-------------3---------|

[Cmaj7] [G] [Am] [C/B]  
 
 E--------------------------------------------------------|
 B---0--1-3-------------------0---------0----------------|
 G---0---------0-2---0----0-2---------0--------0---------|
 D--------------------------------------------------------|
 A---3-------3-----3----------------0--------2-----------|
 E-------------------------3------------------------------|

[Cmaj7] [G]  
 
 E-----------------------------------------------------|
 B---0--0-0-0-0-----------------3--------0----------|
 G---0--0-0-0---2-0------------------2---------------|
 D-------------------2-----0--------------------------|
 A---3------------------------------------------------|
 E-------------------------3--3----3----3---3---------|

[B7/D#] [E]  
 
 E-----------0-------------------0-------------|
 B---0--------------0----0---------------------|
 G---0----0-------0-h1---1----1------1---------|
 D-------1-------------------2-----2-----------|
 A---2----------2-------------------------------|
 E------------------------0---------------------|

Verse II: Hold all notes till B7!!
[C] [G]  
 
 E---0----------0-----------0---------0-----------------|
 B-----3----------3-----------3-----------3-------------|
 G---------0----------0-----------0---------------------|
 D------------------------------------------------------|
 A-------3----------3-----------------------------------|
 E------------------------------3-------3---3-----------|

[C] [G]  
 
 E---0----------0-----------0---------0------3-------------|
 B-----3----------3-----------3-------------3--------------|
 G---------0----------0-----------0--------0---------------|
 D---------------------------------------------------------|
 A-------3----------3--------------------------------------|
 E------------------------------3-------3-----(3)----------|

[C]  
 
 E---0----------0---------------------------------------------|
 B-----3----------3-------3-------3-1-0-1--1h3-1-0-1----------|
 G---------0----------0-----------0---------------------------|
 D------------------------------------------------------------|
 A-------3----------3-------3---------------------------------|
 E--------------------------------3---------------------------|

[B7/D#] [E]  
 
 E------------2------------------------0-----------------------|
 B---0----0--------0--------0------0----------------0---------|
 G---0------------------0----0h1-----------------2h4-----------|
 D-------1------------1------------2------2--------------------|
 A---2----------------------------------------------------------|
 E----------------------------0---------------------------------|

Chorus:
[Em] [F#/D] [G] [D(/F#)]  
 
 E--------------------------------------------------------------|
 B------------------------0-1---0-------------3--3-------------|
 G---0--------0--------2--------2-0----------2--2-------------|
 D---2----2h4-------0---------------2-----0-------0----------|
 A--------------------------------------------------------------|
 E---0--0-----------2---------3---------(2)-----------------|

[Em] [F#/D] [G] [D]  
 
 E-----------------------------------------------------------|
 B--------------------0-1---0-----3---3------3-------------|
 G---0----------0-2--------0-----0---2----2---------------|
 D------0-2-4--------------------------0--0-----------------|
 A-----------------------------------------------------------|
 E---0----------2---------3--3----------------------------|

[Em] [F#/D] [G] [D]  
 
 E------0-------------------------------------------------------|
 B-----------3-1---0-------0h1?-0------------------------------|
 G---4-----0---------2---------------2-0-----2h4-2-------------|
 D-----------------------0--------------------0----------------|
 A----------------------------------------------------5-3--------|
 E------0---------2------------3--3---------------------------|

[D/B] [Cmaj7]  
 
 E----------------------------------------------|
 B---------------------------------0-----------|
 G-------0h2--0h2-0-------------0-------------|
 D-----0------------0---------2---------------|
 A---2----------------2-----3-----------------|
 E----------------------------------------------|

The song is just these parts played twice in the same order.
And that?s it! Please rate, comment and correct me!
Cheers...

Important: The song above is NOT stored on the Chordie server. The original song is hosted at www.guitaretab.com. Chordie works as a search engine and provides on-the-fly formatting. Chordie does not index songs against artists'/composers' will. To remove this song please click here.

Text color:
Chord color:
Chord grids: 
Font size:    
Page size: 

Am B7/D# C C/B Cmaj7 D D/B E Em F#/D G
Rate #2 of 10 versions

Jango Player

Login - add to songbook

SHARE PAGE  




You need to log in to post comments