Guitar Tabs, Chords and Lyrics
Major upgrade!! After one year development the new version of Chordie is now online! Please give feedback.


Love, American Style   Far

 
 E]---------------------------------------[
 B]--------00000000000000-----------------[
 G]--------44444443333333-----------------[
 D]--------55555554444444-----------------[
 A]--------55555554444444-----------------[
 D]---------------------------------------[

 


 


 1st Verse


 

 
 E]---------------------------------------[
 B]---------------------------------------[
 G]------------------------77777777777777-[ x?
 D]--------0-------0000----77777777777777-[
 A]--------0-0--0--0000----55555555555555-[
 D]--------0-14-13-0000-------------------[
 E]---------------------------------------[
 B]--------00000000000000-----------------[
 G]--------44444443333333-----------------[
 D]--------55555554444444-----------------[
 A]--------55555554444444-----------------[
 D]---------------------------------------[
 E]---------------------------------------[
 B]---------------------------------------[
 G]-----------13/14------888888888--------[
 D]--------00-x--x--0000-666666666--------[
 A]--------00-11/12-0000-666666666--------[
 D]--------00-------0000-666666666--------[
 E]---------------------------------------[
 B]---------------------------------------[
 G]-----------------------------66666666--[
 D]--------505050505050505050505444444440~[
 A]--------505050505050505050505444444440~[
 D]--------505050505050505050505444444440~[
 E]--------------------------------------------[
 B]--------------------------------------------[
 G]----7---8---9---10--11--12---14---16/19-----[
 D]----x-0-x-0-x-0-x-0-x-0-x--0-x--0-x--x------[
 A]----5-0-6-0-7-0-8-0-9-0-10-0-12-0-14/17-----[
 D]------0---0-0-0---0---0----0----0-0--0------[
 E]--------------------------------------------[
 B]-------------------------------------18-18--[
 G]----19-20-19-20-19-20-19-20-19-20-19-x--x---[
 D]----x--x--x--x--x--x--x--x--x--x--x--15-15--[ Play this lots of times
 A]----17-18-17-18-17-18-17-18-17-18-17-0--0---[
 D]----0--0--0--0--0--0--0--0--0--0--0--0--0---[
 E]--------------------------------------------[
 B]--------------------------------------------[
 G]--------------------------------------------[
 D]---0~~~~~~~0-0------------------------------[
 A]---0~~~~~~~0-0------------------------------[
 D]---0~~~~~~~0-0------------------------------[


Important: The song above is NOT stored on the Chordie server. The original song is hosted at www.guitaretab.com. Chordie works as a search engine and provides on-the-fly formatting. Chordie does not index songs against artists'/composers' will. To remove this song please click here.

This song is displayed as text-only. Transposing and tuning is only available for chordpro-songs.
Rate #3 of 4 versions

Login - add to songbook

SHARE PAGE  




You need to log in to post comments