Guitar Tabs, Chords and Lyrics
Login is temporarily disabled for some users. Do not panic. Will be back in an hour or two. DO NOT REREGISTER!!


Immer noch  Farin Urlaub

===========
(M/T:Urlaub)
Intro:
Riff1:
 
 1:------------------------------------------------------------|
 2:------------------------------------------------------------|
 3:-7--7--7-7-7--9--9-9-10101010--7--7--7-7-7--5--5-5-3-3-3-3--| 4x
 4:-X--x--x-x-x--X--x-x-x-x-x-x---x--x--x-x-x--x--x-x-x-x-x-x--|
 5:-5--5--5-5-5--7--7-7-8-8-8-8---5--5--5-5-5--3--3-3-1-1-1-1--|
 6:------------------------------------------------------------|

Riff2:
 
 1:--------------------------------------------|
 2:--------------------------------------------|
 3:--7-7--7-7---7-7--7-7-----------------------|
 4:--7-7--7-7---7-7--7-7--7-7------------------|
 5:--5-5--5-5---5-5--5-5--7-7-----5-5--5-5-----|
 6:-----------------------5-5-----3-3--3-3-----|

1.Strophe:
d B g
Vielleicht bekomm ich ja heute endlich den Brief von dir,
d B g
in dem du mir deine Liebe gestehst und dass du zurück willst zu mir,
d B g
weil du doch endlich gemerkt hast, dass Er dir nicht gefällt.
d B g
Vielleicht geh ich heute Abend ins Bett als der glücklichste Mensch der Welt.
Refrain:
Viel[a]leicht scheint ab morgen die Sonne
g9 g7
und der Regen hört endlich auf.
d B g d
Ich warte immer noch darauf.
B g d(-->Interlude)
Ich warte immer noch darauf.
Interlude: (wie Intro)
d B g
d B g
2.Strophe:
d B g
Vielleicht öffnet sich ja die Erde, es wäre mir ein Fest,
d B g
und verschlingt die rechten Parolenfressen und den ganzen dreckigen Rest.
d B g
Vielleicht gibt es sie ja wirklich, die große Gerechtigkeit,
d B g
wo jeder bekommt, was er verdient, es wäre höchste Zeit!
Refrain:
Dann [a]steigen die guten Menschen,
g9 g7
als Engel zum Himmel hinauf.
d B g d
Ich warte immer noch darauf.
B g d
Ich warte immer noch darauf.
B g d
Ich warte immer noch darauf.
B g d
ich warte immer noch...
 
 1:-5--------------------------|
 2:--6-------------------------|
 3:---7----------------7--5----|
 4:----7-----------------------|
 5:-----5--------5-----------8-|
 6:----------------------------|

A g#
Uhhh Und das ist der Beweis:
[B] immer dasselbe, alles [F#]dreht sich im Kreis,
A g#
Uhhh Und das ist der Beweis:
[B] immer dasselbe, alles [F#]dreht sich im Kreis,
A g#
Uhhh Und das ist der Beweis:
[B] immer dasselbe, alles [F#]dreht sich im Kreis,
A g#
Uhhh Und das ist der Beweis:
[B] immer dasselbe, alles [F#]dreht sich im Kreis, im Kreis!!
Interlude: Riff1
d B g
d B g
3.Strophe:
d B g
Vielleicht wird ja alles besser. Vielleicht wird ja alles gut.
d B g
Ich belüg mich doch nur selber, mach mir nur wieder Mut.
Refrain:
Ich [a]will nicht länger warten,
g9 g7
weil es mir schon lange reicht.
Ich [a]möchte endlich Gewissheit,
g9 g7 d B g (Riff 1) d B g
nicht immer nur dieses furchtbare "vielleicht".
Strophe: Riff1
Und ich be[d]greif es nicht, doch ich verzweifle nicht.
B g
Ich hab ja noch eine Hoffnung.
Die Welt hat [d]mich versetzt, und hier steh ich jetzt.
B g d
Ich hoffe nur, meine Hoffnung stirbt zuletzt.

Important: The song above is NOT stored on the Chordie server. The original song is hosted at www.guitaretab.com. Chordie works as a search engine and provides on-the-fly formatting. Chordie does not index songs against artists'/composers' will. To remove this song please click here.

Text color:
Chord color:
Chord grids: 
Font size:    
Page size: 

B F#
Rate #1 of 3 versions

Jango Player

Login - add to songbook

SHARE PAGE  



You need to log in to post comments